  0
SECTION
  2
HEADER
  9
$ACADVER
  1
AC1021
  9
$ACADMAINTVER
 70
     1
  9
$DWGCODEPAGE
  3
ANSI_1252
  9
$LASTSAVEDBY
  1
abianchi
  9
$INSBASE
 10
21276.50000347293
 20
-4991.500008743017
 30
0.0
  9
$EXTMIN
 10
19561.50000347293
 20
-4991.500008743017
 30
0.0
  9
$EXTMAX
 10
21276.50000347293
 20
-3683.28239728121
 30
0.0
  9
$LIMMIN
 10
0.0
 20
0.0
  9
$LIMMAX
 10
431.8
 20
279.4
  9
$ORTHOMODE
 70
     1
  9
$REGENMODE
 70
     1
  9
$FILLMODE
 70
     1
  9
$QTEXTMODE
 70
     0
  9
$MIRRTEXT
 70
     1
  9
$LTSCALE
 40
1.0
  9
$ATTMODE
 70
     1
  9
$TEXTSIZE
 40
0.2
  9
$TRACEWID
 40
0.05
  9
$TEXTSTYLE
  7
Standard
  9
$CLAYER
  8
0
  9
$CELTYPE
  6
ByLayer
  9
$CECOLOR
 62
   256
  9
$CELTSCALE
 40
25.4
  9
$DISPSILH
 70
     0
  9
$DIMSCALE
 40
1.0
  9
$DIMASZ
 40
50.0
  9
$DIMEXO
 40
0.0625
  9
$DIMDLI
 40
0.38
  9
$DIMRND
 40
0.0
  9
$DIMDLE
 40
0.0
  9
$DIMEXE
 40
0.18
  9
$DIMTP
 40
0.0
  9
$DIMTM
 40
0.0
  9
$DIMTXT
 40
65.0
  9
$DIMCEN
 40
0.09
  9
$DIMTSZ
 40
0.0
  9
$DIMTOL
 70
     0
  9
$DIMLIM
 70
     0
  9
$DIMTIH
 70
     0
  9
$DIMTOH
 70
     0
  9
$DIMSE1
 70
     0
  9
$DIMSE2
 70
     0
  9
$DIMTAD
 70
     0
  9
$DIMZIN
 70
     0
  9
$DIMBLK
  1

  9
$DIMASO
 70
     1
  9
$DIMSHO
 70
     1
  9
$DIMPOST
  1
mm
  9
$DIMAPOST
  1

  9
$DIMALT
 70
     0
  9
$DIMALTD
 70
     2
  9
$DIMALTF
 40
25.4
  9
$DIMLFAC
 40
1.0
  9
$DIMTOFL
 70
     0
  9
$DIMTVP
 40
0.0
  9
$DIMTIX
 70
     0
  9
$DIMSOXD
 70
     0
  9
$DIMSAH
 70
     0
  9
$DIMBLK1
  1

  9
$DIMBLK2
  1

  9
$DIMSTYLE
  2
Standard
  9
$DIMCLRD
 70
     0
  9
$DIMCLRE
 70
     0
  9
$DIMCLRT
 70
     0
  9
$DIMTFAC
 40
1.0
  9
$DIMGAP
 40
0.09
  9
$DIMJUST
 70
     0
  9
$DIMSD1
 70
     0
  9
$DIMSD2
 70
     0
  9
$DIMTOLJ
 70
     1
  9
$DIMTZIN
 70
     0
  9
$DIMALTZ
 70
     0
  9
$DIMALTTZ
 70
     0
  9
$DIMUPT
 70
     0
  9
$DIMDEC
 70
     0
  9
$DIMTDEC
 70
     0
  9
$DIMALTU
 70
     2
  9
$DIMALTTD
 70
     2
  9
$DIMTXSTY
  7
Standard
  9
$DIMAUNIT
 70
     0
  9
$DIMADEC
 70
     0
  9
$DIMALTRND
 40
0.0
  9
$DIMAZIN
 70
     0
  9
$DIMDSEP
 70
    46
  9
$DIMATFIT
 70
     3
  9
$DIMFRAC
 70
     0
  9
$DIMLDRBLK
  1

  9
$DIMLUNIT
 70
     2
  9
$DIMLWD
 70
    -2
  9
$DIMLWE
 70
    -2
  9
$DIMTMOVE
 70
     0
  9
$DIMFXL
 40
1.0
  9
$DIMFXLON
 70
     0
  9
$DIMJOGANG
 40
0.7853981633974483
  9
$DIMTFILL
 70
     0
  9
$DIMTFILLCLR
 70
     0
  9
$DIMARCSYM
 70
     0
  9
$DIMLTYPE
  6

  9
$DIMLTEX1
  6

  9
$DIMLTEX2
  6

  9
$LUNITS
 70
     2
  9
$LUPREC
 70
     4
  9
$SKETCHINC
 40
0.1
  9
$FILLETRAD
 40
290.0
  9
$AUNITS
 70
     0
  9
$AUPREC
 70
     0
  9
$MENU
  1
.
  9
$ELEVATION
 40
0.0
  9
$PELEVATION
 40
0.0
  9
$THICKNESS
 40
0.0
  9
$LIMCHECK
 70
     0
  9
$CHAMFERA
 40
0.5
  9
$CHAMFERB
 40
0.5
  9
$CHAMFERC
 40
1.0
  9
$CHAMFERD
 40
0.0
  9
$SKPOLY
 70
     0
  9
$TDCREATE
 40
2454174.748590255
  9
$TDUCREATE
 40
2454174.706923588
  9
$TDUPDATE
 40
2455614.531034247
  9
$TDUUPDATE
 40
2455614.489367581
  9
$TDINDWG
 40
1.2533244097
  9
$TDUSRTIMER
 40
1.2533238657
  9
$USRTIMER
 70
     1
  9
$ANGBASE
 50
0.0
  9
$ANGDIR
 70
     0
  9
$PDMODE
 70
     0
  9
$PDSIZE
 40
0.0
  9
$PLINEWID
 40
0.0
  9
$SPLFRAME
 70
     0
  9
$SPLINETYPE
 70
     6
  9
$SPLINESEGS
 70
     8
  9
$HANDSEED
  5
12D
  9
$SURFTAB1
 70
     6
  9
$SURFTAB2
 70
     6
  9
$SURFTYPE
 70
     6
  9
$SURFU
 70
     6
  9
$SURFV
 70
     6
  9
$UCSBASE
  2

  9
$UCSNAME
  2

  9
$UCSORG
 10
0.0
 20
0.0
 30
0.0
  9
$UCSXDIR
 10
1.0
 20
0.0
 30
0.0
  9
$UCSYDIR
 10
0.0
 20
1.0
 30
0.0
  9
$UCSORTHOREF
  2

  9
$UCSORTHOVIEW
 70
     0
  9
$UCSORGTOP
 10
0.0
 20
0.0
 30
0.0
  9
$UCSORGBOTTOM
 10
0.0
 20
0.0
 30
0.0
  9
$UCSORGLEFT
 10
0.0
 20
0.0
 30
0.0
  9
$UCSORGRIGHT
 10
0.0
 20
0.0
 30
0.0
  9
$UCSORGFRONT
 10
0.0
 20
0.0
 30
0.0
  9
$UCSORGBACK
 10
0.0
 20
0.0
 30
0.0
  9
$PUCSBASE
  2

  9
$PUCSNAME
  2

  9
$PUCSORG
 10
0.0
 20
0.0
 30
0.0
  9
$PUCSXDIR
 10
1.0
 20
0.0
 30
0.0
  9
$PUCSYDIR
 10
0.0
 20
1.0
 30
0.0
  9
$PUCSORTHOREF
  2

  9
$PUCSORTHOVIEW
 70
     0
  9
$PUCSORGTOP
 10
0.0
 20
0.0
 30
0.0
  9
$PUCSORGBOTTOM
 10
0.0
 20
0.0
 30
0.0
  9
$PUCSORGLEFT
 10
0.0
 20
0.0
 30
0.0
  9
$PUCSORGRIGHT
 10
0.0
 20
0.0
 30
0.0
  9
$PUCSORGFRONT
 10
0.0
 20
0.0
 30
0.0
  9
$PUCSORGBACK
 10
0.0
 20
0.0
 30
0.0
  9
$USERI1
 70
     0
  9
$USERI2
 70
     0
  9
$USERI3
 70
     0
  9
$USERI4
 70
     0
  9
$USERI5
 70
     0
  9
$USERR1
 40
0.0
  9
$USERR2
 40
0.0
  9
$USERR3
 40
0.0
  9
$USERR4
 40
0.0
  9
$USERR5
 40
0.0
  9
$WORLDVIEW
 70
     1
  9
$SHADEDGE
 70
     3
  9
$SHADEDIF
 70
    70
  9
$TILEMODE
 70
     1
  9
$MAXACTVP
 70
    64
  9
$PINSBASE
 10
0.0
 20
0.0
 30
0.0
  9
$PLIMCHECK
 70
     0
  9
$PEXTMIN
 10
0.0
 20
0.0
 30
0.0
  9
$PEXTMAX
 10
431.8
 20
279.4
 30
0.0
  9
$PLIMMIN
 10
0.0
 20
0.0
  9
$PLIMMAX
 10
12.0
 20
9.0
  9
$UNITMODE
 70
     0
  9
$VISRETAIN
 70
     1
  9
$PLINEGEN
 70
     0
  9
$PSLTSCALE
 70
     1
  9
$TREEDEPTH
 70
  3020
  9
$CMLSTYLE
  2
Standard
  9
$CMLJUST
 70
     0
  9
$CMLSCALE
 40
1.0
  9
$PROXYGRAPHICS
 70
     1
  9
$MEASUREMENT
 70
     1
  9
$CELWEIGHT
370
    -1
  9
$ENDCAPS
280
     0
  9
$JOINSTYLE
280
     0
  9
$LWDISPLAY
290
     0
  9
$INSUNITS
 70
     4
  9
$HYPERLINKBASE
  1

  9
$STYLESHEET
  1

  9
$XEDIT
290
     1
  9
$CEPSNTYPE
380
     0
  9
$PSTYLEMODE
290
     0
  9
$FINGERPRINTGUID
  2
{E87DC053-8757-44F8-9528-E7CE05F6E4E8}
  9
$VERSIONGUID
  2
{11F05C0A-A0CB-4E74-B6AC-53D309B32FDD}
  9
$EXTNAMES
290
     1
  9
$PSVPSCALE
 40
0.0
  9
$OLESTARTUP
290
     0
  9
$SORTENTS
280
   127
  9
$INDEXCTL
280
     0
  9
$HIDETEXT
280
     1
  9
$XCLIPFRAME
290
     0
  9
$HALOGAP
280
     0
  9
$OBSCOLOR
 70
   257
  9
$OBSLTYPE
280
     0
  9
$INTERSECTIONDISPLAY
280
     0
  9
$INTERSECTIONCOLOR
 70
   257
  9
$DIMASSOC
280
     1
  9
$PROJECTNAME
  1

  9
$CAMERADISPLAY
290
     0
  9
$LENSLENGTH
 40
50.0
  9
$CAMERAHEIGHT
 40
0.0
  9
$STEPSPERSEC
 40
2.0
  9
$STEPSIZE
 40
6.0
  9
$3DDWFPREC
 40
2.0
  9
$PSOLWIDTH
 40
0.25
  9
$PSOLHEIGHT
 40
4.0
  9
$LOFTANG1
 40
1.570796326794896
  9
$LOFTANG2
 40
1.570796326794896
  9
$LOFTMAG1
 40
0.0
  9
$LOFTMAG2
 40
0.0
  9
$LOFTPARAM
 70
     7
  9
$LOFTNORMALS
280
     1
  9
$LATITUDE
 40
37.795
  9
$LONGITUDE
 40
-122.394
  9
$NORTHDIRECTION
 40
0.0
  9
$TIMEZONE
 70
 -8000
  9
$LIGHTGLYPHDISPLAY
280
     1
  9
$TILEMODELIGHTSYNCH
280
     1
  9
$CMATERIAL
347
2F
  9
$SOLIDHIST
280
     1
  9
$SHOWHIST
280
     1
  9
$DWFFRAME
280
     2
  9
$DGNFRAME
280
     0
  9
$REALWORLDSCALE
290
     1
  9
$INTERFERECOLOR
 62
     1
  9
$INTERFEREOBJVS
345
35
  9
$INTERFEREVPVS
346
36
  9
$CSHADOW
280
     0
  9
$SHADOWPLANELOCATION
 40
0.0
  0
ENDSEC
  0
SECTION
  2
CLASSES
  0
CLASS
  1
ACDBDICTIONARYWDFLT
  2
AcDbDictionaryWithDefault
  3
ObjectDBX Classes
 90
        0
 91
        1
280
     0
281
     0
  0
CLASS
  1
TABLESTYLE
  2
AcDbTableStyle
  3
ObjectDBX Classes
 90
     4095
 91
        1
280
     0
281
     0
  0
CLASS
  1
DICTIONARYVAR
  2
AcDbDictionaryVar
  3
ObjectDBX Classes
 90
        0
 91
        5
280
     0
281
     0
  0
CLASS
  1
SPATIAL_FILTER
  2
AcDbSpatialFilter
  3
ObjectDBX Classes
 90
        0
 91
        0
280
     0
281
     0
  0
CLASS
  1
MATERIAL
  2
AcDbMaterial
  3
ObjectDBX Classes
 90
     1024
 91
        3
280
     0
281
     0
  0
CLASS
  1
VISUALSTYLE
  2
AcDbVisualStyle
  3
ObjectDBX Classes
 90
     4095
 91
       16
280
     0
281
     0
  0
CLASS
  1
SORTENTSTABLE
  2
AcDbSortentsTable
  3
ObjectDBX Classes
 90
        0
 91
        2
280
     0
281
     0
  0
ENDSEC
  0
SECTION
  2
TABLES
  0
TABLE
  2
VPORT
  5
23
102
{ACAD_XDICTIONARY
360
27
102
}
330
0
100
AcDbSymbolTable
 70
     1
  0
VPORT
  5
24
330
23
100
AcDbSymbolTableRecord
100
AcDbViewportTableRecord
  2
*Active
 70
     0
 10
0.0
 20
0.0
 11
1.0
 21
1.0
 12
19281.44171085145
 22
-4303.905745666443
 13
0.0
 23
0.0
 14
0.5
 24
0.5
 15
0.5
 25
0.5
 16
0.0
 26
0.0
 36
1.0
 17
0.0
 27
0.0
 37
0.0
 40
3839.144105621033
 41
2.448275862068965
 42
50.0
 43
0.0
 44
0.0
 50
0.0
 51
0.0
 71
     0
 72
   100
 73
     1
 74
     3
 75
     1
 76
     0
 77
     0
 78
     0
281
     0
 65
     1
110
0.0
120
0.0
130
0.0
111
1.0
121
0.0
131
0.0
112
0.0
122
1.0
132
0.0
 79
     0
146
0.0
348
25
 60
     3
 61
     5
292
     1
282
     1
141
0.0
142
0.0
 63
   250
421
  3355443
  0
ENDTAB
  0
TABLE
  2
LTYPE
  5
1E
330
0
100
AcDbSymbolTable
 70
     1
  0
LTYPE
  5
1F
330
1E
100
AcDbSymbolTableRecord
100
AcDbLinetypeTableRecord
  2
ByBlock
 70
     0
  3

 72
    65
 73
     0
 40
0.0
  0
LTYPE
  5
20
330
1E
100
AcDbSymbolTableRecord
100
AcDbLinetypeTableRecord
  2
ByLayer
 70
     0
  3

 72
    65
 73
     0
 40
0.0
  0
LTYPE
  5
C
330
1E
100
AcDbSymbolTableRecord
100
AcDbLinetypeTableRecord
  2
Continuous
 70
     0
  3
Solid line
 72
    65
 73
     0
 40
0.0
  0
ENDTAB
  0
TABLE
  2
LAYER
  5
15
102
{ACAD_XDICTIONARY
360
16
102
}
330
0
100
AcDbSymbolTable
 70
     1
  0
LAYER
  5
6
330
15
100
AcDbSymbolTableRecord
100
AcDbLayerTableRecord
  2
0
 70
     0
 62
     7
  6
Continuous
370
    -3
390
7
347
A
  0
ENDTAB
  0
TABLE
  2
STYLE
  5
1B
330
0
100
AcDbSymbolTable
 70
     1
  0
STYLE
  5
1C
330
1B
100
AcDbSymbolTableRecord
100
AcDbTextStyleTableRecord
  2
Standard
 70
     0
 40
0.0
 41
1.0
 50
0.0
 71
     0
 42
0.2
  3
ARIAL.TTF
  4

1001
ACAD
1000
Arial
1071
       34
  0
ENDTAB
  0
TABLE
  2
VIEW
  5
21
330
0
100
AcDbSymbolTable
 70
     0
  0
ENDTAB
  0
TABLE
  2
UCS
  5
22
330
0
100
AcDbSymbolTable
 70
     0
  0
ENDTAB
  0
TABLE
  2
APPID
  5
28
330
0
100
AcDbSymbolTable
 70
     2
  0
APPID
  5
1A
330
28
100
AcDbSymbolTableRecord
100
AcDbRegAppTableRecord
  2
ACAD
 70
     0
  0
APPID
  5
10
330
28
100
AcDbSymbolTableRecord
100
AcDbRegAppTableRecord
  2
ACAD_PSEXT
 70
     0
  0
ENDTAB
  0
TABLE
  2
DIMSTYLE
  5
29
330
0
100
AcDbSymbolTable
 70
     1
100
AcDbDimStyleTable
 71
     1
340
2A
  0
DIMSTYLE
105
2A
330
29
100
AcDbSymbolTableRecord
100
AcDbDimStyleTableRecord
  2
Standard
 70
     0
  3
mm
 41
50.0
 73
     0
 74
     0
140
65.0
271
     0
272
     0
340
1C
  0
ENDTAB
  0
TABLE
  2
BLOCK_RECORD
  5
1
330
0
100
AcDbSymbolTable
 70
     1
  0
BLOCK_RECORD
  5
2
102
{ACAD_XDICTIONARY
360
3
102
}
330
1
100
AcDbSymbolTableRecord
100
AcDbBlockTableRecord
  2
*Model_Space
340
E
 70
     0
280
     1
281
     0
  0
BLOCK_RECORD
  5
11
330
1
100
AcDbSymbolTableRecord
100
AcDbBlockTableRecord
  2
*Paper_Space
340
14
 70
     0
280
     1
281
     0
  0
BLOCK_RECORD
  5
38
102
{ACAD_XDICTIONARY
360
39
102
}
330
1
100
AcDbSymbolTableRecord
100
AcDbBlockTableRecord
  2
A$C583469A0
340
0
 70
     4
280
     1
281
     0
  0
ENDTAB
  0
ENDSEC
  0
SECTION
  2
BLOCKS
  0
BLOCK
  5
5
330
2
100
AcDbEntity
  8
0
100
AcDbBlockBegin
  2
*Model_Space
 70
     0
 10
0.0
 20
0.0
 30
0.0
  3
*Model_Space
  1

  0
ENDBLK
  5
D
330
2
100
AcDbEntity
  8
0
100
AcDbBlockEnd
  0
BLOCK
  5
12
330
11
100
AcDbEntity
 67
     1
  8
0
100
AcDbBlockBegin
  2
*Paper_Space
 70
     0
 10
0.0
 20
0.0
 30
0.0
  3
*Paper_Space
  1

  0
ENDBLK
  5
13
330
11
100
AcDbEntity
 67
     1
  8
0
100
AcDbBlockEnd
  0
BLOCK
  5
3B
330
38
100
AcDbEntity
  8
0
 48
25.4
370
     9
100
AcDbBlockBegin
  2
A$C583469A0
 70
     0
 10
0.0
 20
0.0
 30
0.0
  3
A$C583469A0
  1

  0
LINE
  5
3C
330
38
100
AcDbEntity
  8
0
  6
Continuous
 62
     7
 48
25.4
100
AcDbLine
 10
1396.721857103494
 20
387.9166087409577
 30
0.0
 11
1396.721857103494
 21
498.1277255329568
 31
0.0
  0
ELLIPSE
  5
3D
330
38
100
AcDbEntity
  8
0
  6
Continuous
 62
     7
 48
25.4
100
AcDbEllipse
 10
1346.725441743492
 20
498.0671589829562
 30
0.0
 11
18.52185746727226
 21
-48.8885558937701
 31
0.0
210
0.0
220
0.0
230
-1.0
 40
0.9505610510608139
 41
3.52085988896446
 42
5.056892615321702
  0
ELLIPSE
  5
3E
330
38
100
AcDbEntity
  8
0
  6
Continuous
 62
     7
 48
25.4
100
AcDbEllipse
 10
1346.725441743492
 20
251.9328583489569
 30
0.0
 11
-18.52185746481152
 21
-48.8885558920673
 31
0.0
210
0.0
220
0.0
230
-1.0
 40
0.9505610511125107
 41
4.367885345461661
 42
5.903918071857335
  0
LINE
  5
3F
330
38
100
AcDbEntity
  8
0
  6
Continuous
 62
     7
 48
25.4
100
AcDbLine
 10
1396.721857103494
 20
251.8722918009571
 30
0.0
 11
1396.721857103494
 21
362.0834085909574
 31
0.0
  0
LINE
  5
40
330
38
100
AcDbEntity
  8
0
  6
Continuous
 62
     7
 48
25.4
100
AcDbLine
 10
15.00001351659375
 20
10.000008666957
 30
0.0
 11
15.00001351659375
 21
740.0000086669588
 31
0.0
  0
LINE
  5
41
330
38
100
AcDbEntity
  8
0
  6
Continuous
 62
     7
 48
25.4
100
AcDbLine
 10
1705.000013516594
 20
0.000008666957001
 30
0.0
 11
25.00001351659375
 21
0.000008666957001
 31
0.0
  0
LINE
  5
42
330
38
100
AcDbEntity
  8
0
  6
Continuous
 62
     7
 48
25.4
100
AcDbLine
 10
1715.000013516594
 20
740.0000086669588
 30
0.0
 11
1715.000013516594
 21
10.000008666957
 31
0.0
  0
LINE
  5
43
330
38
100
AcDbEntity
  8
0
  6
Continuous
 62
     7
 48
25.4
100
AcDbLine
 10
25.00001351659375
 20
750.0000086669587
 30
0.0
 11
162.0000135165937
 21
750.0000086669587
 31
0.0
  0
LINE
  5
44
330
38
100
AcDbEntity
  8
0
  6
Continuous
 62
     7
 48
25.4
100
AcDbLine
 10
598.0000135165901
 20
750.0000086669587
 30
0.0
 11
1705.000013516594
 21
750.0000086669587
 31
0.0
  0
ARC
  5
45
330
38
100
AcDbEntity
  8
0
  6
Continuous
 62
     7
 48
25.4
100
AcDbCircle
 10
25.00001351659375
 20
10.000008666957
 30
0.0
 40
10.00000000000001
100
AcDbArc
 50
180.0
 51
270.0
  0
ARC
  5
46
330
38
100
AcDbEntity
  8
0
  6
Continuous
 62
     7
 48
25.4
100
AcDbCircle
 10
1705.000013516594
 20
10.000008666957
 30
0.0
 40
10.00000000000001
100
AcDbArc
 50
270.0
 51
0.0
  0
ARC
  5
47
330
38
100
AcDbEntity
  8
0
  6
Continuous
 62
     7
 48
25.4
100
AcDbCircle
 10
1705.000013516594
 20
740.0000086669588
 30
0.0
 40
9.999999999999953
100
AcDbArc
 50
0.0
 51
90.0
  0
ARC
  5
48
330
38
100
AcDbEntity
  8
0
  6
Continuous
 62
     7
 48
25.4
100
AcDbCircle
 10
1376.721857103494
 20
375.000008666957
 30
0.0
 40
19.99999999999948
100
AcDbArc
 50
319.7720651418712
 51
40.22793485812885
  0
ARC
  5
49
330
38
100
AcDbEntity
  8
0
  6
Continuous
 62
     7
 48
25.4
100
AcDbCircle
 10
1376.721857103494
 20
375.000008666957
 30
0.0
 40
19.99999999999997
100
AcDbArc
 50
40.22793485812885
 51
319.7720651418712
  0
LINE
  5
4A
330
38
100
AcDbEntity
  8
0
  6
Continuous
 62
     7
 48
25.4
100
AcDbLine
 10
598.0000135165901
 20
690.0000086669588
 30
0.0
 11
1482.867195346589
 21
690.0000086669588
 31
0.0
  0
LINE
  5
4B
330
38
100
AcDbEntity
  8
0
  6
Continuous
 62
     7
 48
25.4
100
AcDbLine
 10
1662.867195346589
 20
504.0078084629548
 30
0.0
 11
1662.867195346589
 21
245.9922088709573
 31
0.0
  0
ARC
  5
4C
330
38
100
AcDbEntity
  8
0
  6
Continuous
 62
     7
 48
25.4
100
AcDbCircle
 10
1472.216899052957
 20
499.5963112948428
 30
0.0
 40
190.7013287423932
100
AcDbArc
 50
1.325542510317539
 51
86.79847702247363
  0
ARC
  5
4D
330
38
100
AcDbEntity
  8
0
  6
Continuous
 62
     7
 48
25.4
100
AcDbCircle
 10
1472.216899052957
 20
250.4037060390692
 30
0.0
 40
190.7013287423921
100
AcDbArc
 50
273.2015229775263
 51
358.6744574896824
  0
LINE
  5
4E
330
38
100
AcDbEntity
  8
0
  6
Continuous
 62
     7
 48
25.4
100
AcDbLine
 10
1482.867195346589
 20
60.000008666957
 30
0.0
 11
339.4115562485858
 21
60.000008666957
 31
0.0
  0
ARC
  5
4F
330
38
100
AcDbEntity
  8
0
 48
25.4
100
AcDbCircle
 10
339.4115562485858
 20
350.0000086669588
 30
0.0
 40
290.0
100
AcDbArc
 50
180.0
 51
270.0
  0
SPLINE
  5
50
330
38
100
AcDbEntity
  8
0
  6
Continuous
 62
     7
 48
25.4
100
AcDbSpline
210
0.0
220
0.0
230
1.0
 70
     8
 71
     3
 72
    34
 73
    30
 74
     0
 42
0.0000000001
 43
0.0000000001
 40
0.0
 40
0.0
 40
0.0
 40
0.0
 40
0.0020909496470034
 40
0.0039749363944989
 40
0.0436005352750647
 40
0.0935022080132522
 40
0.1520965160268936
 40
0.2198069568517661
 40
0.2437018730157693
 40
0.2501872305532252
 40
0.26349440165835
 40
0.3173160880552661
 40
0.3850151496050754
 40
0.4387057444450777
 40
0.499998985532104
 40
0.5630620247210219
 40
0.6238666288611327
 40
0.7023058974594436
 40
0.7299052223432402
 40
0.7498097072177284
 40
0.7539602154611238
 40
0.7577957129265535
 40
0.7980315291800784
 40
0.847817096290518
 40
0.9065651455701363
 40
0.9748534642873172
 40
0.9905570620986679
 40
0.9967328966428079
 40
1.0
 40
1.0
 40
1.0
 40
1.0
 10
162.0000135158916
 20
727.7167838266485
 30
0.0
 10
162.3015687178922
 20
727.7176004140782
 30
0.0
 10
162.8748310865521
 20
727.719152762842
 30
0.0
 10
169.1631862954345
 20
727.735607608196
 30
0.0
 10
182.3300155740398
 20
727.8094584606897
 30
0.0
 10
203.7024283042847
 20
727.8297849407843
 30
0.0
 10
229.1942441415267
 20
727.6251266357303
 30
0.0
 10
251.026797670107
 20
727.0477046642172
 30
0.0
 10
265.3169447742512
 20
726.3804257671562
 30
0.0
 10
271.6817838630813
 20
726.0514515000595
 30
0.0
 10
282.4105629512232
 20
725.4380953745148
 30
0.0
 10
302.0674680322772
 20
724.0644895618498
 30
0.0
 10
327.5988598443218
 20
722.0334553647552
 30
0.0
 10
354.235140109995
 20
720.332941927838
 30
0.0
 10
380.2586975582635
 20
719.5555922061775
 30
0.0
 10
407.3219979762653
 20
720.3871607692852
 30
0.0
 10
436.8127723801516
 20
722.3542087277271
 30
0.0
 10
461.1296082958106
 20
724.3151242820604
 30
0.0
 10
479.4879154353438
 20
725.53932645462
 30
0.0
 10
487.0166496836717
 20
725.9812835598822
 30
0.0
 10
491.0803557835134
 20
726.1945854982967
 30
0.0
 10
498.10523595821
 20
726.549104890515
 30
0.0
 10
511.7765350183107
 20
727.1320215775793
 30
0.0
 10
533.3822772702951
 20
727.6447997671257
 30
0.0
 10
558.9658279688229
 20
727.8535788597455
 30
0.0
 10
579.5482258944757
 20
727.793872856846
 30
0.0
 10
592.5428688366664
 20
727.7373810576663
 30
0.0
 10
596.1667742893587
 20
727.7212895179453
 30
0.0
 10
597.5287812114729
 20
727.7179420101347
 30
0.0
 10
598.0000135158952
 20
727.7167838267267
 30
0.0
  0
LINE
  5
51
330
38
100
AcDbEntity
  8
0
  6
Continuous
 62
     7
 48
25.4
100
AcDbLine
 10
162.0000135165937
 20
605.5611056069592
 30
0.0
 11
598.0000135165901
 21
605.5611056069592
 31
0.0
  0
LINE
  5
52
330
38
100
AcDbEntity
  8
0
  6
Continuous
 62
     7
 48
25.4
100
AcDbLine
 10
162.0000135165937
 20
727.7167838269579
 30
0.0
 11
162.0000135165937
 21
605.5611056069592
 31
0.0
  0
LINE
  5
53
330
38
100
AcDbEntity
  8
0
  6
Continuous
 62
     7
 48
25.4
100
AcDbLine
 10
162.0000135165937
 20
899.9299577769583
 30
0.0
 11
162.0000135165937
 21
727.7167838269579
 31
0.0
  0
LINE
  5
54
330
38
100
AcDbEntity
  8
0
  6
Continuous
 62
     7
 48
25.4
100
AcDbLine
 10
162.0000135165937
 20
964.233827702958
 30
0.0
 11
162.0000135165937
 21
899.9299577769583
 31
0.0
  0
LINE
  5
55
330
38
100
AcDbEntity
  8
0
  6
Continuous
 62
     7
 48
25.4
100
AcDbLine
 10
162.0000135165937
 20
964.233827702958
 30
0.0
 11
162.0000135165937
 21
1255.683359114958
 31
0.0
  0
ARC
  5
56
330
38
100
AcDbEntity
  8
0
  6
Continuous
 62
     7
 48
25.4
100
AcDbCircle
 10
540.4153564348488
 20
1250.390202418522
 30
0.0
 40
57.82741771024149
100
AcDbArc
 50
5.251845067515722
 51
92.95333846813816
  0
LINE
  5
57
330
38
100
AcDbEntity
  8
0
  6
Continuous
 62
     7
 48
25.4
100
AcDbLine
 10
222.5640928474531
 20
1308.140815247269
 30
0.0
 11
537.4359341845919
 21
1308.140815248959
 31
0.0
  0
SPLINE
  5
58
330
38
100
AcDbEntity
  8
0
  6
Continuous
 62
     7
 48
25.4
100
AcDbSpline
210
0.0
220
0.0
230
1.0
 70
     8
 71
     3
 72
    71
 73
    67
 74
     0
 42
0.0000000001
 43
0.0000000001
 40
0.0
 40
0.0
 40
0.0
 40
0.0
 40
0.0662673465498511
 40
0.1316255098764072
 40
0.1598430608489952
 40
0.1920164059091495
 40
0.2081366782312922
 40
0.2217281597174386
 40
0.2328237160495766
 40
0.2414435495566089
 40
0.2475978026924962
 40
0.2512901140537449
 40
0.2525210402789099
 40
0.2532487708121601
 40
0.2552004283115442
 40
0.2583772372663714
 40
0.2627827419050259
 40
0.2684220408039468
 40
0.2753014202375074
 40
0.2834286336628614
 40
0.2928123662364387
 40
0.3034611965128918
 40
0.3153820027734418
 40
0.3285778508457176
 40
0.3430455231383676
 40
0.3587730078781439
 40
0.375737473406832
 40
0.3978908319426388
 40
0.4149812999073045
 40
0.442975550750498
 40
0.4734410165609075
 40
0.5044384733785692
 40
0.5354669367491473
 40
0.569996656472113
 40
0.5948515860000211
 40
0.6075360525180922
 40
0.6242564691580226
 40
0.639167470266469
 40
0.6531340342258977
 40
0.6661394324003353
 40
0.6781735094426558
 40
0.6892317780471559
 40
0.6993141854014229
 40
0.7084237985493476
 40
0.7165655753521292
 40
0.7237453240332346
 40
0.7299689030870981
 40
0.7352416726179636
 40
0.7395681774203288
 40
0.7429520282035602
 40
0.7453965839037111
 40
0.7469033790145369
 40
0.7474733179395195
 40
0.7484157686674994
 40
0.7512427235737187
 40
0.7559543386107434
 40
0.762552125381118
 40
0.7710406049099939
 40
0.7814291886335603
 40
0.793733888162114
 40
0.8079784027769896
 40
0.8401517481909605
 40
0.8683692993123839
 40
0.9118120722825075
 40
0.9557556588804445
 40
1.0
 40
1.0
 40
1.0
 40
1.0
 10
162.0000135158916
 20
964.2338277022103
 30
0.0
 10
171.317428465969
 20
962.6399810786866
 30
0.0
 10
189.824424103881
 20
959.4741552925583
 30
0.0
 10
212.5416123529612
 20
955.4070599412202
 30
0.0
 10
230.6448651634528
 20
951.812737626405
 30
0.0
 10
241.7496159546681
 20
949.4034575230502
 30
0.0
 10
250.7775027895841
 20
947.2912085742823
 30
0.0
 10
256.7452704252428
 20
945.8280799507052
 30
0.0
 10
261.6216271495832
 20
944.5807976283544
 30
0.0
 10
265.4118225260972
 20
943.5849532850983
 30
0.0
 10
268.1139110453187
 20
942.8433559635198
 30
0.0
 10
269.7397284418694
 20
942.4142172978159
 30
0.0
 10
270.562049111064
 20
942.1643849558881
 30
0.0
 10
271.1450203883942
 20
942.0502393904483
 30
0.0
 10
272.0016083710616
 20
941.8065998470607
 30
0.0
 10
273.401336359595
 20
941.4332775257946
 30
0.0
 10
275.3359354778113
 20
940.8856123895573
 30
0.0
 10
277.8105581344135
 20
940.1764407716859
 30
0.0
 10
280.8246453292195
 20
939.2921316634025
 30
0.0
 10
284.3801465085708
 20
938.2305283135051
 30
0.0
 10
288.4783165132285
 20
936.9876650201026
 30
0.0
 10
293.1208550509982
 20
935.5644110176767
 30
0.0
 10
298.3094764526941
 20
933.9662693779375
 30
0.0
 10
304.0460420451927
 20
932.2058046227907
 30
0.0
 10
310.3324906188464
 20
930.3043269978362
 30
0.0
 10
317.1710659542696
 20
928.2945320520672
 30
0.0
 10
325.1431754167133
 20
926.0584553665816
 30
0.0
 10
333.3546609106306
 20
923.9384862982783
 30
0.0
 10
343.2467105752658
 20
921.6721600870082
 30
0.0
 10
354.4722963450514
 20
919.5535164239187
 30
0.0
 10
367.9469086392018
 20
917.878408701255
 30
0.0
 10
382.0382524265188
 20
917.3606328952804
 30
0.0
 10
396.7129417532415
 20
918.3104555481826
 30
0.0
 10
410.2650906320704
 20
920.355401215272
 30
0.0
 10
420.9172717823165
 20
922.5950299310984
 30
0.0
 10
428.8774101933194
 20
924.5111265785421
 30
0.0
 10
435.3467395216685
 20
926.2016802938966
 30
0.0
 10
441.9764441480946
 20
928.0534813484178
 30
0.0
 10
448.0520512646144
 20
929.825538114394
 30
0.0
 10
453.7041461845292
 20
931.522259617212
 30
0.0
 10
458.9343172206536
 20
933.1191342662364
 30
0.0
 10
463.7439728968892
 20
934.5988693601109
 30
0.0
 10
468.1344680495022
 20
935.9499333003553
 30
0.0
 10
472.1070827373513
 20
937.1655748349189
 30
0.0
 10
475.6630351037056
 20
938.2427610367843
 30
0.0
 10
478.8034331662892
 20
939.1814384402646
 30
0.0
 10
481.5293729756813
 20
939.9831979219703
 30
0.0
 10
483.8415882739244
 20
940.6520841056403
 30
0.0
 10
485.741408925678
 20
941.1895016933563
 30
0.0
 10
487.2281546742015
 20
941.606057498468
 30
0.0
 10
488.305862494286
 20
941.8894804017204
 30
0.0
 10
488.9674519164799
 20
942.0769240280863
 30
0.0
 10
489.4184953387048
 20
942.1604035218347
 30
0.0
 10
490.0495744721991
 20
942.3542016477643
 30
0.0
 10
491.2945414049208
 20
942.6819978719663
 30
0.0
 10
493.3626371181999
 20
943.25411347214
 30
0.0
 10
496.2632076006301
 20
944.0251655937386
 30
0.0
 10
499.993871238541
 20
944.9985645350205
 30
0.0
 10
504.5582243688659
 20
946.1504282530979
 30
0.0
 10
509.9578796224196
 20
947.4644328270347
 30
0.0
 10
518.5226043640503
 20
949.4623992733417
 30
0.0
 10
529.3552737936878
 20
951.8127147907383
 30
0.0
 10
544.3030136865927
 20
954.7808705638948
 30
0.0
 10
560.7854357572831
 20
957.8056341841298
 30
0.0
 10
579.3762350766809
 20
961.0425429784168
 30
0.0
 10
591.7779891298778
 20
963.1676503183348
 30
0.0
 10
598.0000135158952
 20
964.2338277022068
 30
0.0
  0
LINE
  5
59
330
38
100
AcDbEntity
  8
0
  6
Continuous
 62
     7
 48
25.4
100
AcDbLine
 10
598.0000135165901
 20
899.9299577769583
 30
0.0
 11
598.0000135165901
 21
727.7167838269579
 31
0.0
  0
LINE
  5
5A
330
38
100
AcDbEntity
  8
0
  6
Continuous
 62
     7
 48
25.4
100
AcDbLine
 10
598.0000135165901
 20
964.233827702958
 30
0.0
 11
598.0000135165901
 21
899.9299577769583
 31
0.0
  0
LINE
  5
5B
330
38
100
AcDbEntity
  8
0
  6
Continuous
 62
     7
 48
25.4
100
AcDbLine
 10
598.0000135165901
 20
964.233827702958
 30
0.0
 11
598.0000135165901
 21
1255.683359114958
 31
0.0
  0
LINE
  5
5C
330
38
100
AcDbEntity
  8
0
  6
Continuous
 62
     7
 48
25.4
100
AcDbLine
 10
598.0000135165901
 20
727.7167838269579
 30
0.0
 11
598.0000135165901
 21
605.5611056069592
 31
0.0
  0
LINE
  5
5D
330
38
100
AcDbEntity
  8
0
  6
Continuous
 62
     7
 48
25.4
100
AcDbLine
 10
633.950612908593
 20
771.0611056069574
 30
0.0
 11
598.0000135165901
 21
771.0611056069574
 31
0.0
  0
LINE
  5
5E
330
38
100
AcDbEntity
  8
0
  6
Continuous
 62
     7
 48
25.4
100
AcDbLine
 10
162.0000135165937
 20
771.0611056069574
 30
0.0
 11
128.950612908593
 21
771.0611056069574
 31
0.0
  0
LINE
  5
5F
330
38
100
AcDbEntity
  8
0
  6
Continuous
 62
     7
 48
25.4
100
AcDbLine
 10
153.950612908593
 20
796.0611056069574
 30
0.0
 11
162.0000135165937
 21
796.0611056069574
 31
0.0
  0
LINE
  5
60
330
38
100
AcDbEntity
  8
0
  6
Continuous
 62
     7
 48
25.4
100
AcDbLine
 10
598.0000135165901
 20
796.0611056069574
 30
0.0
 11
608.950612908593
 21
796.0611056069574
 31
0.0
  0
LINE
  5
61
330
38
100
AcDbEntity
  8
0
  6
Continuous
 62
     7
 48
25.4
100
AcDbLine
 10
128.950612908593
 20
771.0611056069574
 30
0.0
 11
128.950612908593
 21
1121.061105606958
 31
0.0
  0
LINE
  5
62
330
38
100
AcDbEntity
  8
0
  6
Continuous
 62
     7
 48
25.4
100
AcDbLine
 10
153.950612908593
 20
1121.061105606958
 30
0.0
 11
153.950612908593
 21
796.0611056069574
 31
0.0
  0
ARC
  5
63
330
38
100
AcDbEntity
  8
0
  6
Continuous
 62
     7
 48
25.4
100
AcDbCircle
 10
141.450612908593
 20
1121.061105606958
 30
0.0
 40
12.50000000000001
100
AcDbArc
 50
90.0
 51
180.0
  0
ARC
  5
64
330
38
100
AcDbEntity
  8
0
  6
Continuous
 62
     7
 48
25.4
100
AcDbCircle
 10
141.450612908593
 20
1121.061105606958
 30
0.0
 40
12.50000000000007
100
AcDbArc
 50
0.0
 51
90.0
  0
ARC
  5
65
330
38
100
AcDbEntity
  8
0
  6
Continuous
 62
     7
 48
25.4
100
AcDbCircle
 10
621.450612908593
 20
1121.061105606958
 30
0.0
 40
12.50000000000007
100
AcDbArc
 50
90.0
 51
180.0
  0
ARC
  5
66
330
38
100
AcDbEntity
  8
0
  6
Continuous
 62
     7
 48
25.4
100
AcDbCircle
 10
621.450612908593
 20
1121.061105606958
 30
0.0
 40
12.50000000000007
100
AcDbArc
 50
0.0
 51
90.0
  0
LINE
  5
67
330
38
100
AcDbEntity
  8
0
  6
Continuous
 62
     7
 48
25.4
100
AcDbLine
 10
633.950612908593
 20
1121.061105606958
 30
0.0
 11
633.950612908593
 21
771.0611056069574
 31
0.0
  0
LINE
  5
68
330
38
100
AcDbEntity
  8
0
  6
Continuous
 62
     7
 48
25.4
100
AcDbLine
 10
608.950612908593
 20
796.0611056069574
 30
0.0
 11
608.950612908593
 21
1121.061105606958
 31
0.0
  0
LINE
  5
69
330
38
100
AcDbEntity
  8
0
  6
Continuous
 62
     7
 48
25.4
100
AcDbLine
 10
15.00001351659375
 20
746.0000086669587
 30
0.0
 11
15.00001351659375
 21
740.0000086669588
 31
0.0
  0
ARC
  5
6A
330
38
100
AcDbEntity
  8
0
  6
Continuous
 62
     7
 48
25.4
100
AcDbCircle
 10
19.00001351659375
 20
746.0000086669587
 30
0.0
 40
4.0
100
AcDbArc
 50
90.0
 51
180.0
  0
LINE
  5
6B
330
38
100
AcDbEntity
  8
0
  6
Continuous
 62
     7
 48
25.4
100
AcDbLine
 10
1618.248836838593
 20
765.0000086669588
 30
0.0
 11
598.0000135165901
 21
765.0000086669588
 31
0.0
  0
LINE
  5
6C
330
38
100
AcDbEntity
  8
0
  6
Continuous
 62
     7
 48
25.4
100
AcDbLine
 10
162.0000135165937
 20
765.0000086669588
 30
0.0
 11
111.7511901925936
 21
765.0000086669588
 31
0.0
  0
LINE
  5
6D
330
38
100
AcDbEntity
  8
0
  6
Continuous
 62
     7
 48
25.4
100
AcDbLine
 10
25.00001351659375
 20
750.0000086669587
 30
0.0
 11
19.00001351659375
 21
750.0000086669587
 31
0.0
  0
LINE
  5
6E
330
38
100
AcDbEntity
  8
0
  6
Continuous
 62
     7
 48
25.4
100
AcDbLine
 10
1705.000013516594
 20
750.0000086669587
 30
0.0
 11
1621.724543516593
 21
764.6956798429583
 31
0.0
  0
ARC
  5
6F
330
38
100
AcDbEntity
  8
0
  6
Continuous
 62
     7
 48
25.4
100
AcDbCircle
 10
1618.248836838593
 20
745.0000086669588
 30
0.0
 40
20.0
100
AcDbArc
 50
79.99202019865828
 51
90.0
  0
ARC
  5
70
330
38
100
AcDbEntity
  8
0
  6
Continuous
 62
     7
 48
25.4
100
AcDbCircle
 10
111.7511901925936
 20
745.0000086669588
 30
0.0
 40
20.0
100
AcDbArc
 50
90.0
 51
100.0079798013417
  0
ARC
  5
71
330
38
100
AcDbEntity
  8
0
  6
Continuous
 62
     7
 48
25.4
100
AcDbCircle
 10
23.24883683859298
 20
770.0000086669588
 30
0.0
 40
19.99999999999997
100
AcDbArc
 50
270.0
 51
277.6960517219747
  0
LINE
  5
72
330
38
100
AcDbEntity
  8
0
  6
Continuous
 62
     7
 48
25.4
100
AcDbLine
 10
108.2754835145933
 20
764.6956798429583
 30
0.0
 11
25.92719475861668
 21
750.1801600587514
 31
0.0
  0
ELLIPSE
  5
73
330
38
100
AcDbEntity
  8
0
  6
Continuous
 62
     7
 48
25.4
100
AcDbEllipse
 10
34.63971073259382
 20
696.5020968009574
 30
0.0
 11
19.81984860841081
 21
-2.678357920027219
 31
0.0
210
0.0
220
0.0
230
-0.9999999999999998
 40
0.7039005128
 41
2.951919959409194
 42
3.141592653589792
  0
ELLIPSE
  5
74
330
38
100
AcDbEntity
  8
0
  6
Continuous
 62
     7
 48
25.4
100
AcDbEllipse
 10
34.31490099259099
 20
694.4872712389588
 30
0.0
 11
19.65744373867467
 21
-3.685770701005603
 31
0.0
210
0.0
220
0.0
230
-1.0
 40
0.8064254259999998
 41
2.913144008768758
 42
3.141592653589796
  0
ELLIPSE
  5
75
330
38
100
AcDbEntity
  8
0
  6
Continuous
 62
     7
 48
25.4
100
AcDbEllipse
 10
34.63971073259382
 20
23.49792053295823
 30
0.0
 11
-19.81984860831934
 21
-2.678357920026906
 31
0.0
210
0.0
220
0.0
230
-1.0
 40
0.7039005128
 41
0.0
 42
0.1896726941814828
  0
ELLIPSE
  5
76
330
38
100
AcDbEntity
  8
0
  6
Continuous
 62
     7
 48
25.4
100
AcDbEllipse
 10
34.31490099259099
 20
25.51274609495886
 30
0.0
 11
-19.65744373872736
 21
-3.685770701003175
 31
0.0
210
0.0
220
0.0
230
-1.0
 40
0.8064254259999998
 41
0.0
 42
0.2284486448203008
  0
ELLIPSE
  5
77
330
38
100
AcDbEntity
  8
0
  6
Continuous
 62
     7
 48
25.4
100
AcDbEllipse
 10
-4.999986485407133
 20
18.14120469295813
 30
0.0
 11
0.0000000000164001
 21
40.00000000033021
 31
0.0
210
0.0
220
0.0
230
-1.0
 40
0.5
 41
1.436474884842096
 42
1.570796326793953
  0
ARC
  5
78
330
38
100
AcDbEntity
  8
0
  6
Continuous
 62
     7
 48
25.4
100
AcDbCircle
 10
-4.999986483406246
 20
18.14120469295813
 30
0.0
 40
19.99999999999997
100
AcDbArc
 50
0.0
 51
7.696051721960742
  0
ARC
  5
79
330
38
100
AcDbEntity
  8
0
  6
Continuous
 62
     7
 48
25.4
100
AcDbCircle
 10
-24.81983509140628
 20
18.14120469295813
 30
0.0
 40
39.99999999998335
100
AcDbArc
 50
7.696051721960742
 51
10.61965527618074
  0
LINE
  5
7A
330
38
100
AcDbEntity
  8
0
  6
Continuous
 62
     7
 48
25.4
100
AcDbLine
 10
0.3425697765924269
 20
98.17304193895687
 30
0.0
 11
14.65745725459055
 21
21.82697539295805
 31
0.0
  0
ARC
  5
7B
330
38
100
AcDbEntity
  8
0
  6
Continuous
 62
     7
 48
25.4
100
AcDbCircle
 10
20.00001351659375
 20
101.8588126409577
 30
0.0
 40
20.00000000000002
100
AcDbArc
 50
180.0
 51
190.6196552761807
  0
LINE
  5
7C
330
38
100
AcDbEntity
  8
0
  6
Continuous
 62
     7
 48
25.4
100
AcDbLine
 10
0.0000135165937536
 20
618.1412046929581
 30
0.0
 11
0.0000135165937536
 21
101.8588126409577
 31
0.0
  0
LINE
  5
7D
330
38
100
AcDbEntity
  8
0
  6
Continuous
 62
     7
 48
25.4
100
AcDbLine
 10
14.81986212459378
 20
696.5020968009574
 30
0.0
 11
14.81986212459378
 21
23.49792053295823
 31
0.0
  0
ELLIPSE
  5
7E
330
38
100
AcDbEntity
  8
0
  6
Continuous
 62
     7
 48
25.4
100
AcDbEllipse
 10
-4.999986483406246
 20
701.8588126409578
 30
0.0
 11
-0.0000000000520591
 21
-39.99999999938192
 31
0.0
210
0.0
220
0.0
230
-1.0
 40
0.5
 41
4.712388980382105
 42
4.846710422337157
  0
ARC
  5
7F
330
38
100
AcDbEntity
  8
0
  6
Continuous
 62
     7
 48
25.4
100
AcDbCircle
 10
-4.999986483406246
 20
701.8588126409578
 30
0.0
 40
19.9999999999998
100
AcDbArc
 50
352.3039482780394
 51
0.0
  0
ARC
  5
80
330
38
100
AcDbEntity
  8
0
  6
Continuous
 62
     7
 48
25.4
100
AcDbCircle
 10
-24.81983509140628
 20
701.8588126409578
 30
0.0
 40
40.00000000000044
100
AcDbArc
 50
349.3803447238193
 51
352.3039482780394
  0
LINE
  5
81
330
38
100
AcDbEntity
  8
0
  6
Continuous
 62
     7
 48
25.4
100
AcDbLine
 10
14.65745725459055
 20
698.1730419389585
 30
0.0
 11
0.3425697765924269
 21
621.826975392958
 31
0.0
  0
ARC
  5
82
330
38
100
AcDbEntity
  8
0
  6
Continuous
 62
     7
 48
25.4
100
AcDbCircle
 10
20.00001351659375
 20
618.1412046929581
 30
0.0
 40
20.0
100
AcDbArc
 50
169.3803447238192
 51
180.0
  0
LINE
  5
83
330
38
100
AcDbEntity
  8
0
  6
Continuous
 62
     7
 48
25.4
100
AcDbLine
 10
125.604864430592
 20
668.0000086669588
 30
0.0
 11
162.0000135165937
 21
668.0000086669588
 31
0.0
  0
CIRCLE
  5
84
330
38
100
AcDbEntity
  8
0
  6
Continuous
 62
     7
 48
25.4
100
AcDbCircle
 10
95.00001351659376
 20
653.0000086669588
 30
0.0
 40
29.0
  0
CIRCLE
  5
85
330
38
100
AcDbEntity
  8
0
  6
Continuous
 62
     7
 48
25.4
100
AcDbCircle
 10
95.00001351659376
 20
653.0000086669588
 30
0.0
 40
34.0
  0
LINE
  5
86
330
38
100
AcDbEntity
  8
0
  6
Continuous
 62
     7
 48
25.4
100
AcDbLine
 10
162.0000135165937
 20
638.0000086669588
 30
0.0
 11
125.5823584165919
 21
638.0000086669588
 31
0.0
  0
ARC
  5
87
330
38
100
AcDbEntity
  8
0
  6
Continuous
 62
     7
 48
25.4
100
AcDbCircle
 10
95.00001351659376
 20
653.0000086669588
 30
0.0
 40
56.0
100
AcDbArc
 50
15.53679406826835
 51
344.4632059317316
  0
ARC
  5
88
330
38
100
AcDbEntity
  8
0
  6
Continuous
 62
     7
 48
25.4
100
AcDbCircle
 10
95.00001351659376
 20
653.0000086669588
 30
0.0
 40
35.94840344592762
100
AcDbArc
 50
24.66201699974684
 51
335.3379830002532
  0
ARC
  5
89
330
38
100
AcDbEntity
  8
0
 48
25.4
370
     9
100
AcDbCircle
 10
535.1974411365953
 20
375.000008666957
 30
0.0
 40
175.0008092245635
100
AcDbArc
 50
90.17424177937783
 51
269.8257582206221
  0
LINE
  5
8A
330
38
100
AcDbEntity
  8
0
 48
25.4
370
     9
100
AcDbLine
 10
1396.721857103494
 20
362.0834085898841
 30
0.0
 11
1396.721857103494
 21
424.6240979966078
 31
0.0
  0
LINE
  5
8B
330
38
100
AcDbEntity
  8
0
 48
25.4
370
     9
100
AcDbLine
 10
534.6652482653224
 20
200.000008666957
 30
0.0
 11
1346.725441743492
 21
200.000008666957
 31
0.0
  0
LINE
  5
8C
330
38
100
AcDbEntity
  8
0
 48
25.4
370
     9
100
AcDbLine
 10
49.41155624858584
 20
350.000008666977
 30
0.0
 11
49.4115562485822
 21
375.000008666957
 31
0.0
  0
ARC
  5
8D
330
38
100
AcDbEntity
  8
0
 48
25.4
100
AcDbCircle
 10
339.4115562485858
 20
400.0000086669587
 30
0.0
 40
290.0
100
AcDbArc
 50
127.7171569172312
 51
180.0
  0
LINE
  5
8E
330
38
100
AcDbEntity
  8
0
 48
25.4
370
     9
100
AcDbLine
 10
49.41155624858584
 20
400.0000086669387
 30
0.0
 11
49.4115562485822
 21
375.0000086669588
 31
0.0
  0
LINE
  5
8F
330
38
100
AcDbEntity
  8
0
 48
25.4
370
     9
100
AcDbLine
 10
534.6652482653224
 20
550.0000086669587
 30
0.0
 11
1346.725441743492
 21
550.000008666957
 31
0.0
  0
ARC
  5
90
330
38
100
AcDbEntity
  8
0
  6
Continuous
 62
     7
 48
25.4
100
AcDbCircle
 10
219.5846705971963
 20
1250.390202418522
 30
0.0
 40
57.82741771024149
100
AcDbArc
 50
87.04666153165367
 51
174.7481549324843
  0
ARC
  5
91
330
38
100
AcDbEntity
  8
0
 48
25.4
370
     9
100
AcDbCircle
 10
1687.945365801315
 20
375.5239371596999
 30
0.0
 40
25.0
100
AcDbArc
 50
258.4303049333276
 51
101.6522920882369
  0
LINE
  5
92
330
38
100
AcDbEntity
  8
0
 48
25.4
370
     9
100
AcDbLine
 10
1687.933145185911
 20
350.5239401465697
 30
0.0
 11
1615.292148091361
 21
357.9010722180465
 31
0.0
  0
LINE
  5
93
330
38
100
AcDbEntity
  8
0
 48
25.4
370
     9
100
AcDbLine
 10
1687.957586416716
 20
400.5239341728318
 30
0.0
 11
1615.389914890194
 21
393.1372411915308
 31
0.0
  0
ARC
  5
94
330
38
100
AcDbEntity
  8
0
 48
25.4
370
     9
100
AcDbCircle
 10
1615.341031490781
 20
375.5191567047897
 30
0.0
 40
17.61815230291333
100
AcDbArc
 50
89.84102668535731
 51
269.8410266855657
  0
TEXT
  5
95
330
38
100
AcDbEntity
  8
0
370
     9
100
AcDbText
 10
1261.483449351439
 20
19.99113585156556
 30
0.0
 40
20.0
  1
WINDSOR 2 - 1700mm (right hand)
100
AcDbText
  0
ENDBLK
  5
96
330
38
100
AcDbEntity
  8
0
 48
25.4
370
     9
100
AcDbBlockEnd
  0
ENDSEC
  0
SECTION
  2
ENTITIES
  0
LINE
  5
CE
330
2
100
AcDbEntity
  8
0
  6
Continuous
 62
     7
 48
25.4
100
AcDbLine
 10
20958.22184705983
 20
-4603.583408669016
 30
0.0
 11
20958.22184705983
 21
-4493.372291877016
 31
0.0
  0
ELLIPSE
  5
CF
330
2
100
AcDbEntity
  8
0
  6
Continuous
 62
     7
 48
25.4
100
AcDbEllipse
 10
20908.22543169983
 20
-4493.432858427016
 30
0.0
 11
18.52185746727226
 21
-48.8885558937701
 31
0.0
210
0.0
220
0.0
230
-0.9999999999999998
 40
0.9505610510608139
 41
3.52085988896446
 42
5.056892615321702
  0
ELLIPSE
  5
D0
330
2
100
AcDbEntity
  8
0
  6
Continuous
 62
     7
 48
25.4
100
AcDbEllipse
 10
20908.22543169983
 20
-4739.567159061016
 30
0.0
 11
-18.52185746481152
 21
-48.8885558920673
 31
0.0
210
0.0
220
0.0
230
-0.9999999999999998
 40
0.9505610511125107
 41
4.367885345461661
 42
5.903918071857335
  0
LINE
  5
D1
330
2
100
AcDbEntity
  8
0
  6
Continuous
 62
     7
 48
25.4
100
AcDbLine
 10
20958.22184705983
 20
-4739.627725609016
 30
0.0
 11
20958.22184705983
 21
-4629.416608819016
 31
0.0
  0
LINE
  5
D2
330
2
100
AcDbEntity
  8
0
  6
Continuous
 62
     7
 48
25.4
100
AcDbLine
 10
19576.50000347293
 20
-4981.500008743016
 30
0.0
 11
19576.50000347293
 21
-4251.500008743014
 31
0.0
  0
LINE
  5
D3
330
2
100
AcDbEntity
  8
0
  6
Continuous
 62
     7
 48
25.4
100
AcDbLine
 10
21266.50000347293
 20
-4991.500008743017
 30
0.0
 11
19586.50000347293
 21
-4991.500008743017
 31
0.0
  0
LINE
  5
D4
330
2
100
AcDbEntity
  8
0
  6
Continuous
 62
     7
 48
25.4
100
AcDbLine
 10
21276.50000347293
 20
-4251.500008743014
 30
0.0
 11
21276.50000347293
 21
-4981.500008743016
 31
0.0
  0
LINE
  5
D5
330
2
100
AcDbEntity
  8
0
  6
Continuous
 62
     7
 48
25.4
100
AcDbLine
 10
19586.50000347293
 20
-4241.500008743014
 30
0.0
 11
19723.50000347293
 21
-4241.500008743014
 31
0.0
  0
LINE
  5
D6
330
2
100
AcDbEntity
  8
0
  6
Continuous
 62
     7
 48
25.4
100
AcDbLine
 10
20159.50000347293
 20
-4241.500008743014
 30
0.0
 11
21266.50000347293
 21
-4241.500008743014
 31
0.0
  0
ARC
  5
D7
330
2
100
AcDbEntity
  8
0
  6
Continuous
 62
     7
 48
25.4
100
AcDbCircle
 10
19586.50000347293
 20
-4981.500008743016
 30
0.0
 40
10.00000000000001
100
AcDbArc
 50
180.0
 51
270.0
  0
ARC
  5
D8
330
2
100
AcDbEntity
  8
0
  6
Continuous
 62
     7
 48
25.4
100
AcDbCircle
 10
21266.50000347293
 20
-4981.500008743016
 30
0.0
 40
10.00000000000001
100
AcDbArc
 50
270.0
 51
0.0
  0
ARC
  5
D9
330
2
100
AcDbEntity
  8
0
  6
Continuous
 62
     7
 48
25.4
100
AcDbCircle
 10
21266.50000347293
 20
-4251.500008743014
 30
0.0
 40
9.999999999999953
100
AcDbArc
 50
0.0
 51
90.0
  0
ARC
  5
DA
330
2
100
AcDbEntity
  8
0
  6
Continuous
 62
     7
 48
25.4
100
AcDbCircle
 10
20938.22184705984
 20
-4616.500008743016
 30
0.0
 40
19.99999999999948
100
AcDbArc
 50
319.7720651418712
 51
40.22793485812885
  0
ARC
  5
DB
330
2
100
AcDbEntity
  8
0
  6
Continuous
 62
     7
 48
25.4
100
AcDbCircle
 10
20938.22184705984
 20
-4616.500008743016
 30
0.0
 40
19.99999999999997
100
AcDbArc
 50
40.22793485812885
 51
319.7720651418712
  0
LINE
  5
DC
330
2
100
AcDbEntity
  8
0
  6
Continuous
 62
     7
 48
25.4
100
AcDbLine
 10
20159.50000347293
 20
-4301.500008743015
 30
0.0
 11
21044.36718530293
 21
-4301.500008743015
 31
0.0
  0
LINE
  5
DD
330
2
100
AcDbEntity
  8
0
  6
Continuous
 62
     7
 48
25.4
100
AcDbLine
 10
21224.36718530293
 20
-4487.492208947018
 30
0.0
 11
21224.36718530293
 21
-4745.507808539016
 31
0.0
  0
ARC
  5
DE
330
2
100
AcDbEntity
  8
0
  6
Continuous
 62
     7
 48
25.4
100
AcDbCircle
 10
21033.7168890093
 20
-4491.90370611513
 30
0.0
 40
190.7013287423932
100
AcDbArc
 50
1.325542510317539
 51
86.79847702247363
  0
ARC
  5
DF
330
2
100
AcDbEntity
  8
0
  6
Continuous
 62
     7
 48
25.4
100
AcDbCircle
 10
21033.7168890093
 20
-4741.096311370903
 30
0.0
 40
190.7013287423921
100
AcDbArc
 50
273.2015229775263
 51
358.6744574896824
  0
LINE
  5
E0
330
2
100
AcDbEntity
  8
0
  6
Continuous
 62
     7
 48
25.4
100
AcDbLine
 10
21044.36718530293
 20
-4931.500008743016
 30
0.0
 11
19900.91154620492
 21
-4931.500008743016
 31
0.0
  0
ARC
  5
E1
330
2
100
AcDbEntity
  8
0
 48
25.4
100
AcDbCircle
 10
19900.91154620492
 20
-4641.500008743014
 30
0.0
 40
290.0
100
AcDbArc
 50
180.0
 51
270.0
  0
SPLINE
  5
E2
330
2
100
AcDbEntity
  8
0
  6
Continuous
 62
     7
 48
25.4
100
AcDbSpline
210
0.0
220
0.0
230
1.0
 70
     8
 71
     3
 72
    34
 73
    30
 74
     0
 42
0.0000000001
 43
0.0000000001
 40
0.0
 40
0.0
 40
0.0
 40
0.0
 40
0.0020909496470034
 40
0.0039749363944989
 40
0.0436005352750647
 40
0.0935022080132522
 40
0.1520965160268936
 40
0.2198069568517661
 40
0.2437018730157693
 40
0.2501872305532252
 40
0.26349440165835
 40
0.3173160880552661
 40
0.3850151496050754
 40
0.4387057444450777
 40
0.499998985532104
 40
0.5630620247210219
 40
0.6238666288611327
 40
0.7023058974594436
 40
0.7299052223432402
 40
0.7498097072177284
 40
0.7539602154611238
 40
0.7577957129265535
 40
0.7980315291800784
 40
0.847817096290518
 40
0.9065651455701363
 40
0.9748534642873172
 40
0.9905570620986679
 40
0.9967328966428079
 40
1.0
 40
1.0
 40
1.0
 40
1.0
 10
19723.50000347223
 20
-4263.783233583324
 30
0.0
 10
19723.80155867423
 20
-4263.782416995894
 30
0.0
 10
19724.37482104289
 20
-4263.780864647131
 30
0.0
 10
19730.66317625177
 20
-4263.764409801777
 30
0.0
 10
19743.83000553038
 20
-4263.690558949283
 30
0.0
 10
19765.20241826062
 20
-4263.670232469189
 30
0.0
 10
19790.69423409787
 20
-4263.874890774243
 30
0.0
 10
19812.52678762645
 20
-4264.452312745755
 30
0.0
 10
19826.81693473059
 20
-4265.119591642817
 30
0.0
 10
19833.18177381942
 20
-4265.448565909913
 30
0.0
 10
19843.91055290756
 20
-4266.061922035458
 30
0.0
 10
19863.56745798862
 20
-4267.435527848124
 30
0.0
 10
19889.09884980066
 20
-4269.466562045217
 30
0.0
 10
19915.73513006633
 20
-4271.167075482135
 30
0.0
 10
19941.7586875146
 20
-4271.944425203796
 30
0.0
 10
19968.82198793261
 20
-4271.112856640687
 30
0.0
 10
19998.31276233649
 20
-4269.145808682245
 30
0.0
 10
20022.62959825215
 20
-4267.184893127913
 30
0.0
 10
20040.98790539169
 20
-4265.960690955353
 30
0.0
 10
20048.51663964001
 20
-4265.518733850091
 30
0.0
 10
20052.58034573985
 20
-4265.305431911676
 30
0.0
 10
20059.60522591455
 20
-4264.950912519458
 30
0.0
 10
20073.27652497465
 20
-4264.367995832393
 30
0.0
 10
20094.88226722664
 20
-4263.855217642848
 30
0.0
 10
20120.46581792517
 20
-4263.646438550227
 30
0.0
 10
20141.04821585082
 20
-4263.706144553127
 30
0.0
 10
20154.04285879301
 20
-4263.762636352306
 30
0.0
 10
20157.6667642457
 20
-4263.778727892027
 30
0.0
 10
20159.02877116781
 20
-4263.782075399838
 30
0.0
 10
20159.50000347224
 20
-4263.783233583246
 30
0.0
  0
LINE
  5
E3
330
2
100
AcDbEntity
  8
0
  6
Continuous
 62
     7
 48
25.4
100
AcDbLine
 10
19723.50000347293
 20
-4385.938911803014
 30
0.0
 11
20159.50000347293
 21
-4385.938911803014
 31
0.0
  0
LINE
  5
E4
330
2
100
AcDbEntity
  8
0
  6
Continuous
 62
     7
 48
25.4
100
AcDbLine
 10
19723.50000347293
 20
-4263.783233583015
 30
0.0
 11
19723.50000347293
 21
-4385.938911803014
 31
0.0
  0
LINE
  5
E5
330
2
100
AcDbEntity
  8
0
  6
Continuous
 62
     7
 48
25.4
100
AcDbLine
 10
19723.50000347293
 20
-4091.570059633014
 30
0.0
 11
19723.50000347293
 21
-4263.783233583015
 31
0.0
  0
LINE
  5
E6
330
2
100
AcDbEntity
  8
0
  6
Continuous
 62
     7
 48
25.4
100
AcDbLine
 10
19723.50000347293
 20
-4027.266189707015
 30
0.0
 11
19723.50000347293
 21
-4091.570059633014
 31
0.0
  0
LINE
  5
E7
330
2
100
AcDbEntity
  8
0
  6
Continuous
 62
     7
 48
25.4
100
AcDbLine
 10
19723.50000347293
 20
-4027.266189707015
 30
0.0
 11
19723.50000347293
 21
-3735.816658295016
 31
0.0
  0
ARC
  5
E8
330
2
100
AcDbEntity
  8
0
  6
Continuous
 62
     7
 48
25.4
100
AcDbCircle
 10
20101.91534639119
 20
-3741.109814991452
 30
0.0
 40
57.82741771024149
100
AcDbArc
 50
5.251845067515723
 51
92.95333846813816
  0
LINE
  5
E9
330
2
100
AcDbEntity
  8
0
  6
Continuous
 62
     7
 48
25.4
100
AcDbLine
 10
19784.06408280379
 20
-3683.359202162704
 30
0.0
 11
20098.93592414093
 21
-3683.359202161014
 31
0.0
  0
SPLINE
  5
EA
330
2
100
AcDbEntity
  8
0
  6
Continuous
 62
     7
 48
25.4
100
AcDbSpline
210
0.0
220
0.0
230
1.0
 70
     8
 71
     3
 72
    71
 73
    67
 74
     0
 42
0.0000000001
 43
0.0000000001
 40
0.0
 40
0.0
 40
0.0
 40
0.0
 40
0.0662673465498511
 40
0.1316255098764072
 40
0.1598430608489952
 40
0.1920164059091495
 40
0.2081366782312922
 40
0.2217281597174386
 40
0.2328237160495766
 40
0.2414435495566089
 40
0.2475978026924962
 40
0.2512901140537449
 40
0.2525210402789099
 40
0.2532487708121601
 40
0.2552004283115442
 40
0.2583772372663714
 40
0.2627827419050259
 40
0.2684220408039468
 40
0.2753014202375074
 40
0.2834286336628614
 40
0.2928123662364387
 40
0.3034611965128918
 40
0.3153820027734418
 40
0.3285778508457176
 40
0.3430455231383676
 40
0.3587730078781439
 40
0.375737473406832
 40
0.3978908319426388
 40
0.4149812999073045
 40
0.442975550750498
 40
0.4734410165609075
 40
0.5044384733785692
 40
0.5354669367491473
 40
0.569996656472113
 40
0.5948515860000211
 40
0.6075360525180922
 40
0.6242564691580226
 40
0.639167470266469
 40
0.6531340342258977
 40
0.6661394324003353
 40
0.6781735094426558
 40
0.6892317780471559
 40
0.6993141854014229
 40
0.7084237985493476
 40
0.7165655753521292
 40
0.7237453240332346
 40
0.7299689030870981
 40
0.7352416726179636
 40
0.7395681774203288
 40
0.7429520282035602
 40
0.7453965839037111
 40
0.7469033790145369
 40
0.7474733179395195
 40
0.7484157686674994
 40
0.7512427235737187
 40
0.7559543386107434
 40
0.762552125381118
 40
0.7710406049099939
 40
0.7814291886335603
 40
0.793733888162114
 40
0.8079784027769896
 40
0.8401517481909605
 40
0.8683692993123839
 40
0.9118120722825075
 40
0.9557556588804445
 40
1.0
 40
1.0
 40
1.0
 40
1.0
 10
19723.50000347223
 20
-4027.266189707762
 30
0.0
 10
19732.81741842231
 20
-4028.860036331287
 30
0.0
 10
19751.32441406022
 20
-4032.025862117414
 30
0.0
 10
19774.0416023093
 20
-4036.092957468753
 30
0.0
 10
19792.14485511979
 20
-4039.687279783568
 30
0.0
 10
19803.24960591101
 20
-4042.096559886923
 30
0.0
 10
19812.27749274592
 20
-4044.208808835691
 30
0.0
 10
19818.24526038158
 20
-4045.671937459268
 30
0.0
 10
19823.12161710592
 20
-4046.919219781619
 30
0.0
 10
19826.91181248244
 20
-4047.915064124874
 30
0.0
 10
19829.61390100166
 20
-4048.656661446453
 30
0.0
 10
19831.23971839821
 20
-4049.085800112157
 30
0.0
 10
19832.0620390674
 20
-4049.335632454084
 30
0.0
 10
19832.64501034473
 20
-4049.449778019525
 30
0.0
 10
19833.5015983274
 20
-4049.693417562912
 30
0.0
 10
19834.90132631593
 20
-4050.066739884178
 30
0.0
 10
19836.83592543415
 20
-4050.614405020416
 30
0.0
 10
19839.31054809075
 20
-4051.323576638287
 30
0.0
 10
19842.32463528556
 20
-4052.207885746571
 30
0.0
 10
19845.88013646491
 20
-4053.269489096468
 30
0.0
 10
19849.97830646957
 20
-4054.51235238987
 30
0.0
 10
19854.62084500734
 20
-4055.935606392296
 30
0.0
 10
19859.80946640903
 20
-4057.533748032035
 30
0.0
 10
19865.54603200153
 20
-4059.294212787182
 30
0.0
 10
19871.83248057519
 20
-4061.195690412136
 30
0.0
 10
19878.67105591061
 20
-4063.205485357906
 30
0.0
 10
19886.64316537305
 20
-4065.441562043392
 30
0.0
 10
19894.85465086697
 20
-4067.561531111695
 30
0.0
 10
19904.74670053161
 20
-4069.827857322965
 30
0.0
 10
19915.97228630139
 20
-4071.946500986054
 30
0.0
 10
19929.44689859554
 20
-4073.621608708719
 30
0.0
 10
19943.53824238286
 20
-4074.139384514693
 30
0.0
 10
19958.21293170958
 20
-4073.189561861791
 30
0.0
 10
19971.76508058841
 20
-4071.1446161947
 30
0.0
 10
19982.41726173866
 20
-4068.904987478875
 30
0.0
 10
19990.37740014966
 20
-4066.988890831431
 30
0.0
 10
19996.84672947801
 20
-4065.298337116076
 30
0.0
 10
20003.47643410444
 20
-4063.446536061555
 30
0.0
 10
20009.55204122095
 20
-4061.674479295579
 30
0.0
 10
20015.20413614087
 20
-4059.97775779276
 30
0.0
 10
20020.434307177
 20
-4058.380883143736
 30
0.0
 10
20025.24396285323
 20
-4056.901148049862
 30
0.0
 10
20029.63445800584
 20
-4055.550084109618
 30
0.0
 10
20033.60707269369
 20
-4054.334442575053
 30
0.0
 10
20037.16302506005
 20
-4053.257256373188
 30
0.0
 10
20040.30342312263
 20
-4052.318578969709
 30
0.0
 10
20043.02936293202
 20
-4051.516819488003
 30
0.0
 10
20045.34157823027
 20
-4050.847933304333
 30
0.0
 10
20047.24139888202
 20
-4050.310515716616
 30
0.0
 10
20048.72814463054
 20
-4049.893959911505
 30
0.0
 10
20049.80585245063
 20
-4049.610537008253
 30
0.0
 10
20050.46744187282
 20
-4049.423093381887
 30
0.0
 10
20050.91848529505
 20
-4049.339613888139
 30
0.0
 10
20051.54956442854
 20
-4049.145815762209
 30
0.0
 10
20052.79453136126
 20
-4048.818019538006
 30
0.0
 10
20054.86262707454
 20
-4048.245903937833
 30
0.0
 10
20057.76319755697
 20
-4047.474851816235
 30
0.0
 10
20061.49386119488
 20
-4046.501452874952
 30
0.0
 10
20066.05821432521
 20
-4045.349589156876
 30
0.0
 10
20071.45786957876
 20
-4044.035584582938
 30
0.0
 10
20080.02259432039
 20
-4042.037618136631
 30
0.0
 10
20090.85526375003
 20
-4039.687302619234
 30
0.0
 10
20105.80300364293
 20
-4036.719146846078
 30
0.0
 10
20122.28542571362
 20
-4033.694383225843
 30
0.0
 10
20140.87622503302
 20
-4030.457474431556
 30
0.0
 10
20153.27797908622
 20
-4028.332367091638
 30
0.0
 10
20159.50000347224
 20
-4027.266189707766
 30
0.0
  0
LINE
  5
EB
330
2
100
AcDbEntity
  8
0
  6
Continuous
 62
     7
 48
25.4
100
AcDbLine
 10
20159.50000347293
 20
-4091.570059633014
 30
0.0
 11
20159.50000347293
 21
-4263.783233583015
 31
0.0
  0
LINE
  5
EC
330
2
100
AcDbEntity
  8
0
  6
Continuous
 62
     7
 48
25.4
100
AcDbLine
 10
20159.50000347293
 20
-4027.266189707015
 30
0.0
 11
20159.50000347293
 21
-4091.570059633014
 31
0.0
  0
LINE
  5
ED
330
2
100
AcDbEntity
  8
0
  6
Continuous
 62
     7
 48
25.4
100
AcDbLine
 10
20159.50000347293
 20
-4027.266189707015
 30
0.0
 11
20159.50000347293
 21
-3735.816658295016
 31
0.0
  0
LINE
  5
EE
330
2
100
AcDbEntity
  8
0
  6
Continuous
 62
     7
 48
25.4
100
AcDbLine
 10
20159.50000347293
 20
-4263.783233583015
 30
0.0
 11
20159.50000347293
 21
-4385.938911803014
 31
0.0
  0
LINE
  5
EF
330
2
100
AcDbEntity
  8
0
  6
Continuous
 62
     7
 48
25.4
100
AcDbLine
 10
20195.45060286493
 20
-4220.438911803015
 30
0.0
 11
20159.50000347293
 21
-4220.438911803015
 31
0.0
  0
LINE
  5
F0
330
2
100
AcDbEntity
  8
0
  6
Continuous
 62
     7
 48
25.4
100
AcDbLine
 10
19723.50000347293
 20
-4220.438911803015
 30
0.0
 11
19690.45060286493
 21
-4220.438911803015
 31
0.0
  0
LINE
  5
F1
330
2
100
AcDbEntity
  8
0
  6
Continuous
 62
     7
 48
25.4
100
AcDbLine
 10
19715.45060286493
 20
-4195.438911803015
 30
0.0
 11
19723.50000347293
 21
-4195.438911803015
 31
0.0
  0
LINE
  5
F2
330
2
100
AcDbEntity
  8
0
  6
Continuous
 62
     7
 48
25.4
100
AcDbLine
 10
20159.50000347293
 20
-4195.438911803015
 30
0.0
 11
20170.45060286493
 21
-4195.438911803015
 31
0.0
  0
LINE
  5
F3
330
2
100
AcDbEntity
  8
0
  6
Continuous
 62
     7
 48
25.4
100
AcDbLine
 10
19690.45060286493
 20
-4220.438911803015
 30
0.0
 11
19690.45060286493
 21
-3870.438911803015
 31
0.0
  0
LINE
  5
F4
330
2
100
AcDbEntity
  8
0
  6
Continuous
 62
     7
 48
25.4
100
AcDbLine
 10
19715.45060286493
 20
-3870.438911803015
 30
0.0
 11
19715.45060286493
 21
-4195.438911803015
 31
0.0
  0
ARC
  5
F5
330
2
100
AcDbEntity
  8
0
  6
Continuous
 62
     7
 48
25.4
100
AcDbCircle
 10
19702.95060286493
 20
-3870.438911803015
 30
0.0
 40
12.50000000000001
100
AcDbArc
 50
90.0
 51
180.0
  0
ARC
  5
F6
330
2
100
AcDbEntity
  8
0
  6
Continuous
 62
     7
 48
25.4
100
AcDbCircle
 10
19702.95060286493
 20
-3870.438911803015
 30
0.0
 40
12.50000000000007
100
AcDbArc
 50
0.0
 51
90.0
  0
ARC
  5
F7
330
2
100
AcDbEntity
  8
0
  6
Continuous
 62
     7
 48
25.4
100
AcDbCircle
 10
20182.95060286493
 20
-3870.438911803015
 30
0.0
 40
12.50000000000007
100
AcDbArc
 50
90.0
 51
180.0
  0
ARC
  5
F8
330
2
100
AcDbEntity
  8
0
  6
Continuous
 62
     7
 48
25.4
100
AcDbCircle
 10
20182.95060286493
 20
-3870.438911803015
 30
0.0
 40
12.50000000000007
100
AcDbArc
 50
0.0
 51
90.0
  0
LINE
  5
F9
330
2
100
AcDbEntity
  8
0
  6
Continuous
 62
     7
 48
25.4
100
AcDbLine
 10
20195.45060286493
 20
-3870.438911803015
 30
0.0
 11
20195.45060286493
 21
-4220.438911803015
 31
0.0
  0
LINE
  5
FA
330
2
100
AcDbEntity
  8
0
  6
Continuous
 62
     7
 48
25.4
100
AcDbLine
 10
20170.45060286493
 20
-4195.438911803015
 30
0.0
 11
20170.45060286493
 21
-3870.438911803015
 31
0.0
  0
LINE
  5
FB
330
2
100
AcDbEntity
  8
0
  6
Continuous
 62
     7
 48
25.4
100
AcDbLine
 10
19576.50000347293
 20
-4245.500008743014
 30
0.0
 11
19576.50000347293
 21
-4251.500008743014
 31
0.0
  0
ARC
  5
FC
330
2
100
AcDbEntity
  8
0
  6
Continuous
 62
     7
 48
25.4
100
AcDbCircle
 10
19580.50000347293
 20
-4245.500008743014
 30
0.0
 40
4.0
100
AcDbArc
 50
90.0
 51
180.0
  0
LINE
  5
FD
330
2
100
AcDbEntity
  8
0
  6
Continuous
 62
     7
 48
25.4
100
AcDbLine
 10
21179.74882679493
 20
-4226.500008743014
 30
0.0
 11
20159.50000347293
 21
-4226.500008743014
 31
0.0
  0
LINE
  5
FE
330
2
100
AcDbEntity
  8
0
  6
Continuous
 62
     7
 48
25.4
100
AcDbLine
 10
19723.50000347293
 20
-4226.500008743014
 30
0.0
 11
19673.25118014893
 21
-4226.500008743014
 31
0.0
  0
LINE
  5
FF
330
2
100
AcDbEntity
  8
0
  6
Continuous
 62
     7
 48
25.4
100
AcDbLine
 10
19586.50000347293
 20
-4241.500008743014
 30
0.0
 11
19580.50000347293
 21
-4241.500008743014
 31
0.0
  0
LINE
  5
100
330
2
100
AcDbEntity
  8
0
  6
Continuous
 62
     7
 48
25.4
100
AcDbLine
 10
21266.50000347293
 20
-4241.500008743014
 30
0.0
 11
21183.22453347293
 21
-4226.804337567015
 31
0.0
  0
ARC
  5
101
330
2
100
AcDbEntity
  8
0
  6
Continuous
 62
     7
 48
25.4
100
AcDbCircle
 10
21179.74882679493
 20
-4246.500008743015
 30
0.0
 40
20.0
100
AcDbArc
 50
79.99202019865828
 51
90.0
  0
ARC
  5
102
330
2
100
AcDbEntity
  8
0
  6
Continuous
 62
     7
 48
25.4
100
AcDbCircle
 10
19673.25118014893
 20
-4246.500008743015
 30
0.0
 40
20.0
100
AcDbArc
 50
90.0
 51
100.0079798013417
  0
ARC
  5
103
330
2
100
AcDbEntity
  8
0
  6
Continuous
 62
     7
 48
25.4
100
AcDbCircle
 10
19584.74882679493
 20
-4221.500008743015
 30
0.0
 40
19.99999999999997
100
AcDbArc
 50
270.0
 51
277.6960517219747
  0
LINE
  5
104
330
2
100
AcDbEntity
  8
0
  6
Continuous
 62
     7
 48
25.4
100
AcDbLine
 10
19669.77547347093
 20
-4226.804337567015
 30
0.0
 11
19587.42718471496
 21
-4241.319857351221
 31
0.0
  0
ELLIPSE
  5
105
330
2
100
AcDbEntity
  8
0
  6
Continuous
 62
     7
 48
25.4
100
AcDbEllipse
 10
19596.13970068893
 20
-4294.997920609016
 30
0.0
 11
19.81984860841081
 21
-2.678357920027219
 31
0.0
210
0.0
220
0.0
230
-0.9999999999999998
 40
0.7039005128000002
 41
2.951919959409194
 42
3.141592653589792
  0
ELLIPSE
  5
106
330
2
100
AcDbEntity
  8
0
  6
Continuous
 62
     7
 48
25.4
100
AcDbEllipse
 10
19595.81489094893
 20
-4297.012746171014
 30
0.0
 11
19.65744373867467
 21
-3.685770701005602
 31
0.0
210
0.0
220
0.0
230
-1.0
 40
0.8064254259999998
 41
2.913144008768758
 42
3.141592653589796
  0
ELLIPSE
  5
107
330
2
100
AcDbEntity
  8
0
  6
Continuous
 62
     7
 48
25.4
100
AcDbEllipse
 10
19596.13970068893
 20
-4968.002096877015
 30
0.0
 11
-19.81984860831934
 21
-2.678357920026906
 31
0.0
210
0.0
220
0.0
230
-1.0
 40
0.7039005128
 41
0.0
 42
0.1896726941814828
  0
ELLIPSE
  5
108
330
2
100
AcDbEntity
  8
0
  6
Continuous
 62
     7
 48
25.4
100
AcDbEllipse
 10
19595.81489094893
 20
-4965.987271315015
 30
0.0
 11
-19.65744373872736
 21
-3.685770701003175
 31
0.0
210
0.0
220
0.0
230
-1.0
 40
0.8064254259999998
 41
0.0
 42
0.2284486448203008
  0
ELLIPSE
  5
109
330
2
100
AcDbEntity
  8
0
  6
Continuous
 62
     7
 48
25.4
100
AcDbEllipse
 10
19556.50000347093
 20
-4973.358812717015
 30
0.0
 11
0.0000000000164001
 21
40.00000000033021
 31
0.0
210
0.0
220
0.0
230
-1.0
 40
0.5
 41
1.436474884842096
 42
1.570796326793953
  0
ARC
  5
10A
330
2
100
AcDbEntity
  8
0
  6
Continuous
 62
     7
 48
25.4
100
AcDbCircle
 10
19556.50000347293
 20
-4973.358812717015
 30
0.0
 40
19.99999999999997
100
AcDbArc
 50
0.0
 51
7.696051721960742
  0
ARC
  5
10B
330
2
100
AcDbEntity
  8
0
  6
Continuous
 62
     7
 48
25.4
100
AcDbCircle
 10
19536.68015486493
 20
-4973.358812717015
 30
0.0
 40
39.99999999998335
100
AcDbArc
 50
7.696051721960742
 51
10.61965527618074
  0
LINE
  5
10C
330
2
100
AcDbEntity
  8
0
  6
Continuous
 62
     7
 48
25.4
100
AcDbLine
 10
19561.84255973293
 20
-4893.326975471016
 30
0.0
 11
19576.15744721093
 21
-4969.673042017015
 31
0.0
  0
ARC
  5
10D
330
2
100
AcDbEntity
  8
0
  6
Continuous
 62
     7
 48
25.4
100
AcDbCircle
 10
19581.50000347293
 20
-4889.641204769016
 30
0.0
 40
20.00000000000002
100
AcDbArc
 50
180.0
 51
190.6196552761807
  0
LINE
  5
10E
330
2
100
AcDbEntity
  8
0
  6
Continuous
 62
     7
 48
25.4
100
AcDbLine
 10
19561.50000347293
 20
-4373.358812717015
 30
0.0
 11
19561.50000347293
 21
-4889.641204769016
 31
0.0
  0
LINE
  5
10F
330
2
100
AcDbEntity
  8
0
  6
Continuous
 62
     7
 48
25.4
100
AcDbLine
 10
19576.31985208093
 20
-4294.997920609016
 30
0.0
 11
19576.31985208093
 21
-4968.002096877015
 31
0.0
  0
ELLIPSE
  5
110
330
2
100
AcDbEntity
  8
0
  6
Continuous
 62
     7
 48
25.4
100
AcDbEllipse
 10
19556.50000347293
 20
-4289.641204769015
 30
0.0
 11
-0.0000000000520591
 21
-39.99999999938192
 31
0.0
210
0.0
220
0.0
230
-1.0
 40
0.5
 41
4.712388980382105
 42
4.846710422337157
  0
ARC
  5
111
330
2
100
AcDbEntity
  8
0
  6
Continuous
 62
     7
 48
25.4
100
AcDbCircle
 10
19556.50000347293
 20
-4289.641204769015
 30
0.0
 40
19.9999999999998
100
AcDbArc
 50
352.3039482780393
 51
0.0
  0
ARC
  5
112
330
2
100
AcDbEntity
  8
0
  6
Continuous
 62
     7
 48
25.4
100
AcDbCircle
 10
19536.68015486493
 20
-4289.641204769015
 30
0.0
 40
40.00000000000044
100
AcDbArc
 50
349.3803447238193
 51
352.3039482780393
  0
LINE
  5
113
330
2
100
AcDbEntity
  8
0
  6
Continuous
 62
     7
 48
25.4
100
AcDbLine
 10
19576.15744721093
 20
-4293.326975471014
 30
0.0
 11
19561.84255973293
 21
-4369.673042017015
 31
0.0
  0
ARC
  5
114
330
2
100
AcDbEntity
  8
0
  6
Continuous
 62
     7
 48
25.4
100
AcDbCircle
 10
19581.50000347293
 20
-4373.358812717015
 30
0.0
 40
20.0
100
AcDbArc
 50
169.3803447238192
 51
180.0
  0
LINE
  5
115
330
2
100
AcDbEntity
  8
0
  6
Continuous
 62
     7
 48
25.4
100
AcDbLine
 10
19687.10485438693
 20
-4323.500008743014
 30
0.0
 11
19723.50000347293
 21
-4323.500008743014
 31
0.0
  0
CIRCLE
  5
116
330
2
100
AcDbEntity
  8
0
  6
Continuous
 62
     7
 48
25.4
100
AcDbCircle
 10
19656.50000347293
 20
-4338.500008743014
 30
0.0
 40
29.0
  0
CIRCLE
  5
117
330
2
100
AcDbEntity
  8
0
  6
Continuous
 62
     7
 48
25.4
100
AcDbCircle
 10
19656.50000347293
 20
-4338.500008743014
 30
0.0
 40
34.0
  0
LINE
  5
118
330
2
100
AcDbEntity
  8
0
  6
Continuous
 62
     7
 48
25.4
100
AcDbLine
 10
19723.50000347293
 20
-4353.500008743014
 30
0.0
 11
19687.08234837293
 21
-4353.500008743014
 31
0.0
  0
ARC
  5
119
330
2
100
AcDbEntity
  8
0
  6
Continuous
 62
     7
 48
25.4
100
AcDbCircle
 10
19656.50000347293
 20
-4338.500008743014
 30
0.0
 40
56.0
100
AcDbArc
 50
15.53679406826835
 51
344.4632059317316
  0
ARC
  5
11A
330
2
100
AcDbEntity
  8
0
  6
Continuous
 62
     7
 48
25.4
100
AcDbCircle
 10
19656.50000347293
 20
-4338.500008743014
 30
0.0
 40
35.94840344592762
100
AcDbArc
 50
24.66201699974684
 51
335.3379830002532
  0
ARC
  5
11B
330
2
100
AcDbEntity
  8
0
 48
25.4
370
     9
100
AcDbCircle
 10
20096.69743109294
 20
-4616.500008743016
 30
0.0
 40
175.0008092245635
100
AcDbArc
 50
90.17424177937785
 51
269.8257582206221
  0
LINE
  5
11C
330
2
100
AcDbEntity
  8
0
 48
25.4
370
     9
100
AcDbLine
 10
20958.22184705983
 20
-4629.416608820089
 30
0.0
 11
20958.22184705983
 21
-4566.875919413365
 31
0.0
  0
LINE
  5
11D
330
2
100
AcDbEntity
  8
0
 48
25.4
370
     9
100
AcDbLine
 10
20096.16523822166
 20
-4791.500008743017
 30
0.0
 11
20908.22543169983
 21
-4791.500008743017
 31
0.0
  0
LINE
  5
11E
330
2
100
AcDbEntity
  8
0
 48
25.4
370
     9
100
AcDbLine
 10
19610.91154620492
 20
-4641.500008742997
 30
0.0
 11
19610.91154620492
 21
-4616.500008743016
 31
0.0
  0
ARC
  5
11F
330
2
100
AcDbEntity
  8
0
 48
25.4
100
AcDbCircle
 10
19900.91154620492
 20
-4591.500008743014
 30
0.0
 40
290.0
100
AcDbArc
 50
127.7171569172312
 51
180.0
  0
LINE
  5
120
330
2
100
AcDbEntity
  8
0
 48
25.4
370
     9
100
AcDbLine
 10
19610.91154620492
 20
-4591.500008743034
 30
0.0
 11
19610.91154620492
 21
-4616.500008743014
 31
0.0
  0
LINE
  5
121
330
2
100
AcDbEntity
  8
0
 48
25.4
370
     9
100
AcDbLine
 10
20096.16523822166
 20
-4441.500008743014
 30
0.0
 11
20908.22543169983
 21
-4441.500008743016
 31
0.0
  0
ARC
  5
122
330
2
100
AcDbEntity
  8
0
  6
Continuous
 62
     7
 48
25.4
100
AcDbCircle
 10
19781.08466055354
 20
-3741.109814991452
 30
0.0
 40
57.82741771024149
100
AcDbArc
 50
87.04666153165367
 51
174.7481549324843
  0
ARC
  5
123
330
2
100
AcDbEntity
  8
0
 48
25.4
370
     9
100
AcDbCircle
 10
21249.44535575766
 20
-4615.976080250272
 30
0.0
 40
25.0
100
AcDbArc
 50
258.4303049333276
 51
101.6522920882369
  0
LINE
  5
124
330
2
100
AcDbEntity
  8
0
 48
25.4
370
     9
100
AcDbLine
 10
21249.43313514225
 20
-4640.976077263403
 30
0.0
 11
21176.7921380477
 21
-4633.598945191926
 31
0.0
  0
LINE
  5
125
330
2
100
AcDbEntity
  8
0
 48
25.4
370
     9
100
AcDbLine
 10
21249.45757637306
 20
-4590.976083237141
 30
0.0
 11
21176.88990484654
 21
-4598.362776218443
 31
0.0
  0
ARC
  5
126
330
2
100
AcDbEntity
  8
0
 48
25.4
370
     9
100
AcDbCircle
 10
21176.84102144712
 20
-4615.980860705183
 30
0.0
 40
17.61815230291333
100
AcDbArc
 50
89.84102668535733
 51
269.8410266855657
  0
TEXT
  5
127
330
2
100
AcDbEntity
  8
0
370
     9
100
AcDbText
 10
20822.98343930778
 20
-4971.508881558407
 30
0.0
 40
20.0
  1
PHOENIX 1&2 VERS.DESTRA
100
AcDbText
  0
ENDSEC
  0
SECTION
  2
OBJECTS
  0
DICTIONARY
  5
9
330
0
100
AcDbDictionary
281
     1
  3
ACAD_COLOR
350
31
  3
ACAD_GROUP
350
2C
  3
ACAD_LAYOUT
350
F
  3
ACAD_MATERIAL
350
B
  3
ACAD_MLINESTYLE
350
2D
  3
ACAD_PLOTSETTINGS
350
2E
  3
ACAD_PLOTSTYLENAME
350
8
  3
ACAD_TABLESTYLE
350
32
  3
ACAD_VISUALSTYLE
350
26
  3
AcDbVariableDictionary
350
A7
  0
DICTIONARY
  5
27
330
23
100
AcDbDictionary
280
     1
281
     1
  0
DICTIONARY
  5
16
330
15
100
AcDbDictionary
280
     1
281
     1
  3
ACAD_LAYERFILTERS
360
17
  3
ACAD_LAYERSTATES
360
18
  3
ACLYDICTIONARY
360
19
  0
DICTIONARY
  5
3
330
2
100
AcDbDictionary
280
     1
281
     1
  3
ACAD_SORTENTS
360
98
  0
DICTIONARY
  5
39
330
38
100
AcDbDictionary
280
     1
281
     1
  3
ACAD_SORTENTS
360
97
  0
DICTIONARY
  5
31
102
{ACAD_REACTORS
330
9
102
}
330
9
100
AcDbDictionary
281
     1
  0
DICTIONARY
  5
2C
102
{ACAD_REACTORS
330
9
102
}
330
9
100
AcDbDictionary
281
     1
  0
DICTIONARY
  5
F
102
{ACAD_REACTORS
330
9
102
}
330
9
100
AcDbDictionary
281
     1
  3
Layout1
350
14
  3
Model
350
E
  0
DICTIONARY
  5
B
102
{ACAD_REACTORS
330
9
102
}
330
9
100
AcDbDictionary
281
     1
  3
ByBlock
350
30
  3
ByLayer
350
2F
  3
Global
350
A
  0
DICTIONARY
  5
2D
102
{ACAD_REACTORS
330
9
102
}
330
9
100
AcDbDictionary
281
     1
  3
Standard
350
33
  0
DICTIONARY
  5
2E
102
{ACAD_REACTORS
330
9
102
}
330
9
100
AcDbDictionary
281
     1
  0
ACDBDICTIONARYWDFLT
  5
8
102
{ACAD_REACTORS
330
9
102
}
330
9
100
AcDbDictionary
281
     1
  3
Normal
350
7
100
AcDbDictionaryWithDefault
340
7
  0
DICTIONARY
  5
32
102
{ACAD_REACTORS
330
9
102
}
330
9
100
AcDbDictionary
281
     1
  3
Standard
350
34
  0
DICTIONARY
  5
26
102
{ACAD_REACTORS
330
9
102
}
330
9
100
AcDbDictionary
281
     1
  3
2dWireframe
350
25
  3
3D Hidden
350
B3
  3
3dWireframe
350
36
  3
Basic
350
B2
  3
Brighten
350
B6
  3
ColorChange
350
BA
  3
Conceptual
350
B4
  3
Dim
350
B5
  3
Facepattern
350
B9
  3
Flat
350
AE
  3
FlatWithEdges
350
AF
  3
Gouraud
350
B0
  3
GouraudWithEdges
350
B1
  3
Linepattern
350
B8
  3
Realistic
350
35
  3
Thicken
350
B7
  0
DICTIONARY
  5
A7
102
{ACAD_REACTORS
330
9
102
}
330
9
100
AcDbDictionary
281
     1
  3
CTABLESTYLE
350
A8
  3
DIMASSOC
350
AC
  3
HIDETEXT
350
AB
  3
INDEXCTL
350
AA
  3
SORTENTS
350
A9
  0
DICTIONARY
  5
17
102
{ACAD_REACTORS
330
16
102
}
330
16
100
AcDbDictionary
281
     1
  0
DICTIONARY
  5
18
102
{ACAD_REACTORS
330
16
102
}
330
16
100
AcDbDictionary
281
     1
  0
DICTIONARY
  5
19
102
{ACAD_REACTORS
330
16
102
}
330
16
100
AcDbDictionary
281
     1
1001
ACAD
1000
<All
  0
SORTENTSTABLE
  5
98
102
{ACAD_REACTORS
330
3
102
}
330
3
100
AcDbSortentsTable
330
2
331
103
  5
103
331
ED
  5
ED
331
CF
  5
CF
331
121
  5
121
331
116
  5
116
331
F8
  5
F8
331
E2
  5
E2
331
10F
  5
10F
331
122
  5
122
331
EE
  5
EE
331
D0
  5
D0
331
104
  5
104
331
117
  5
117
331
E3
  5
E3
331
F9
  5
F9
331
D8
  5
D8
331
123
  5
123
331
105
  5
105
331
EF
  5
EF
331
D1
  5
D1
331
118
  5
118
331
FA
  5
FA
331
E4
  5
E4
331
D9
  5
D9
331
124
  5
124
331
D2
  5
D2
331
106
  5
106
331
119
  5
119
331
E5
  5
E5
331
FB
  5
FB
331
F0
  5
F0
331
DA
  5
DA
331
125
  5
125
331
107
  5
107
331
D3
  5
D3
331
11A
  5
11A
331
FC
  5
FC
331
E6
  5
E6
331
F1
  5
F1
331
DB
  5
DB
331
126
  5
126
331
D4
  5
D4
331
108
  5
108
331
11B
  5
11B
331
E7
  5
E7
331
FD
  5
FD
331
F2
  5
F2
331
DC
  5
DC
331
110
  5
110
331
127
  5
127
331
109
  5
109
331
D5
  5
D5
331
11C
  5
11C
331
FE
  5
FE
331
E8
  5
E8
331
111
  5
111
331
DD
  5
DD
331
F3
  5
F3
331
D6
  5
D6
331
10A
  5
10A
331
FF
  5
FF
331
E9
  5
E9
331
11D
  5
11D
331
112
  5
112
331
F4
  5
F4
331
DE
  5
DE
331
10B
  5
10B
331
D7
  5
D7
331
11E
  5
11E
331
100
  5
100
331
EA
  5
EA
331
113
  5
113
331
DF
  5
DF
331
F5
  5
F5
331
10C
  5
10C
331
101
  5
101
331
EB
  5
EB
331
11F
  5
11F
331
114
  5
114
331
F6
  5
F6
331
E0
  5
E0
331
10D
  5
10D
331
120
  5
120
331
102
  5
102
331
CE
  5
CE
331
EC
  5
EC
331
115
  5
115
331
E1
  5
E1
331
F7
  5
F7
331
10E
  5
10E
  0
SORTENTSTABLE
  5
97
102
{ACAD_REACTORS
330
39
102
}
330
39
100
AcDbSortentsTable
330
38
  0
LAYOUT
  5
14
102
{ACAD_REACTORS
330
F
102
}
330
F
100
AcDbPlotSettings
  1

  2

  4

  6

 40
0.0
 41
0.0
 42
0.0
 43
0.0
 44
0.0
 45
0.0
 46
0.0
 47
0.0
 48
0.0
 49
0.0
140
0.0
141
0.0
142
1.0
143
1.0
 70
   688
 72
     0
 73
     0
 74
     5
  7

 75
    16
147
1.0
 76
     0
 77
     2
 78
   300
148
0.0
149
0.0
100
AcDbLayout
  1
Layout1
 70
     1
 71
     1
 10
0.0
 20
0.0
 11
12.0
 21
9.0
 12
0.0
 22
0.0
 32
0.0
 14
0.0
 24
0.0
 34
0.0
 15
431.8
 25
279.4
 35
0.0
146
0.0
 13
0.0
 23
0.0
 33
0.0
 16
1.0
 26
0.0
 36
0.0
 17
0.0
 27
1.0
 37
0.0
 76
     0
330
11
  0
LAYOUT
  5
E
102
{ACAD_REACTORS
330
F
102
}
330
F
100
AcDbPlotSettings
  1

  2
PrimoPDF
  4
A4
  6

 40
3.174999952316283
 41
3.174999952316283
 42
3.175003051757812
 43
3.17498779296875
 44
209.8886566162109
 45
297.0530090332031
 46
0.0
 47
0.0
 48
19511.11100844126
 49
-5389.374767771624
140
23493.51808027309
141
-1160.229401081451
142
1.0
143
20.0
 70
 11936
 72
     1
 73
     1
 74
     4
  7

 75
     0
147
0.0457551531797123
 76
     0
 77
     2
 78
   300
148
-19511.11100844126
149
5389.374767771624
100
AcDbLayout
  1
Model
 70
     1
 71
     0
 10
0.0
 20
0.0
 11
431.8
 21
279.4
 12
0.0
 22
0.0
 32
0.0
 14
0.0
 24
0.0
 34
0.0
 15
431.8
 25
279.4
 35
0.0
146
0.0
 13
0.0
 23
0.0
 33
0.0
 16
1.0
 26
0.0
 36
0.0
 17
0.0
 27
1.0
 37
0.0
 76
     0
330
2
331
24
1001
ACAD_PSEXT
1000
PrimoPDF
1000
PrimoPDF
1000
PrimoPort:
1000

1070
     0
  0
MATERIAL
  5
30
102
{ACAD_XDICTIONARY
360
C6
102
}
102
{ACAD_REACTORS
330
B
102
}
330
B
100
AcDbMaterial
  1
ByBlock
  0
MATERIAL
  5
2F
102
{ACAD_XDICTIONARY
360
C4
102
}
102
{ACAD_REACTORS
330
B
102
}
330
B
100
AcDbMaterial
  1
ByLayer
  0
MATERIAL
  5
A
102
{ACAD_XDICTIONARY
360
BE
102
}
102
{ACAD_REACTORS
330
B
102
}
330
B
100
AcDbMaterial
  1
Global
  0
MLINESTYLE
  5
33
102
{ACAD_REACTORS
330
2D
102
}
330
2D
100
AcDbMlineStyle
  2
STANDARD
 70
     0
  3

 62
   256
 51
90.0
 52
90.0
 71
     2
 49
0.5
 62
   256
  6
BYLAYER
 49
-0.5
 62
   256
  6
BYLAYER
  0
ACDBPLACEHOLDER
  5
7
102
{ACAD_REACTORS
330
8
102
}
330
8
  0
TABLESTYLE
  5
34
102
{ACAD_REACTORS
330
32
102
}
330
32
100
AcDbTableStyle
  3
Standard
 70
     0
 71
     0
 40
0.06
 41
0.06
280
     0
281
     0
  7
Standard
140
0.18
170
     2
 62
     0
 63
     7
283
     0
 90
        4
 91
        0
  1

274
    -2
284
     1
 64
     0
275
    -2
285
     1
 65
     0
276
    -2
286
     1
 66
     0
277
    -2
287
     1
 67
     0
278
    -2
288
     1
 68
     0
279
    -2
289
     1
 69
     0
  7
Standard
140
0.25
170
     5
 62
     0
 63
     7
283
     0
 90
        4
 91
        0
  1

274
    -2
284
     1
 64
     0
275
    -2
285
     1
 65
     0
276
    -2
286
     1
 66
     0
277
    -2
287
     1
 67
     0
278
    -2
288
     1
 68
     0
279
    -2
289
     1
 69
     0
  7
Standard
140
0.18
170
     5
 62
     0
 63
     7
283
     0
 90
        4
 91
        0
  1

274
    -2
284
     1
 64
     0
275
    -2
285
     1
 65
     0
276
    -2
286
     1
 66
     0
277
    -2
287
     1
 67
     0
278
    -2
288
     1
 68
     0
279
    -2
289
     1
 69
     0
  0
VISUALSTYLE
  5
25
102
{ACAD_REACTORS
330
26
102
}
330
26
100
AcDbVisualStyle
  2
2dWireframe
 70
     4
 71
     0
 72
     2
 73
     0
 90
        0
 40
-0.6
 41
-30.0
 62
     5
 63
     7
 74
     1
 91
        4
 64
     7
 65
   257
 75
     1
175
     1
 42
1.0
 92
        0
 66
   257
 43
1.0
 76
     1
 77
     6
 78
     2
 67
     7
 79
     5
170
     0
171
     0
290
     0
174
     0
 93
        1
 44
0.0
173
     0
291
     0
 45
0.0
  0
VISUALSTYLE
  5
B3
102
{ACAD_REACTORS
330
26
102
}
330
26
100
AcDbVisualStyle
  2
3D Hidden
 70
     6
 71
     1
 72
     2
 73
     2
 90
        0
 40
-0.6
 41
-30.0
 62
     5
 63
     7
 74
     2
 91
        2
 64
     7
 65
   257
 75
     2
175
     1
 42
40.0
 92
        0
 66
   257
 43
1.0
 76
     1
 77
     6
 78
     2
 67
     7
 79
     3
170
     0
171
     0
290
     0
174
     0
 93
        1
 44
0.0
173
     0
291
     0
 45
0.0
  0
VISUALSTYLE
  5
36
102
{ACAD_REACTORS
330
26
102
}
330
26
100
AcDbVisualStyle
  2
3dWireframe
 70
     5
 71
     0
 72
     2
 73
     0
 90
        0
 40
-0.6
 41
-30.0
 62
     5
 63
     7
 74
     1
 91
        4
 64
     7
 65
   257
 75
     1
175
     1
 42
1.0
 92
        0
 66
   257
 43
1.0
 76
     1
 77
     6
 78
     2
 67
     7
 79
     5
170
     0
171
     0
290
     0
174
     0
 93
        1
 44
0.0
173
     0
291
     0
 45
0.0
  0
VISUALSTYLE
  5
B2
102
{ACAD_REACTORS
330
26
102
}
330
26
100
AcDbVisualStyle
  2
Basic
 70
     7
 71
     1
 72
     0
 73
     1
 90
        0
 40
-0.6
 41
-30.0
 62
     5
 63
     7
 74
     0
 91
        4
 64
     7
 65
   257
 75
     1
175
     1
 42
1.0
 92
        8
 66
     7
 43
1.0
 76
     1
 77
     6
 78
     2
 67
     7
 79
     5
170
     0
171
     0
290
     0
174
     0
 93
        1
 44
0.0
173
     0
291
     1
 45
0.0
  0
VISUALSTYLE
  5
B6
102
{ACAD_REACTORS
330
26
102
}
330
26
100
AcDbVisualStyle
  2
Brighten
 70
    12
 71
     2
 72
     2
 73
     0
 90
        0
 40
-0.6
 41
-30.0
 62
     5
 63
     7
 74
     1
 91
        4
 64
     7
 65
   257
 75
     1
175
     1
 42
1.0
 92
        8
 66
     7
 43
1.0
 76
     1
 77
     6
 78
     2
 67
     7
 79
     5
170
     0
171
     0
290
     0
174
     0
 93
        1
 44
50.0
173
     0
291
     1
 45
0.0
  0
VISUALSTYLE
  5
BA
102
{ACAD_REACTORS
330
26
102
}
330
26
100
AcDbVisualStyle
  2
ColorChange
 70
    16
 71
     2
 72
     2
 73
     3
 90
        0
 40
-0.6
 41
-30.0
 62
     5
 63
     8
 74
     1
 91
        4
 64
     7
 65
   257
 75
     1
175
     1
 42
1.0
 92
        8
 66
     8
 43
1.0
 76
     1
 77
     6
 78
     2
 67
     7
 79
     5
170
     0
171
     0
290
     0
174
     0
 93
        1
 44
0.0
173
     0
291
     1
 45
0.0
  0
VISUALSTYLE
  5
B4
102
{ACAD_REACTORS
330
26
102
}
330
26
100
AcDbVisualStyle
  2
Conceptual
 70
     9
 71
     3
 72
     2
 73
     0
 90
        0
 40
-0.6
 41
-30.0
 62
     5
 63
     7
 74
     2
 91
        2
 64
     7
 65
   257
 75
     1
175
     1
 42
40.0
 92
        8
 66
     7
 43
1.0
 76
     1
 77
     6
 78
     2
 67
     7
 79
     3
170
     0
171
     0
290
     0
174
     0
 93
        1
 44
0.0
173
     0
291
     0
 45
0.0
  0
VISUALSTYLE
  5
B5
102
{ACAD_REACTORS
330
26
102
}
330
26
100
AcDbVisualStyle
  2
Dim
 70
    11
 71
     2
 72
     2
 73
     0
 90
        0
 40
-0.6
 41
-30.0
 62
     5
 63
     7
 74
     1
 91
        4
 64
     7
 65
   257
 75
     1
175
     1
 42
1.0
 92
        8
 66
     7
 43
1.0
 76
     1
 77
     6
 78
     2
 67
     7
 79
     5
170
     0
171
     0
290
     0
174
     0
 93
        1
 44
-50.0
173
     0
291
     1
 45
0.0
  0
VISUALSTYLE
  5
B9
102
{ACAD_REACTORS
330
26
102
}
330
26
100
AcDbVisualStyle
  2
Facepattern
 70
    15
 71
     2
 72
     2
 73
     0
 90
        0
 40
-0.6
 41
-30.0
 62
     5
 63
     7
 74
     1
 91
        4
 64
     7
 65
   257
 75
     1
175
     1
 42
1.0
 92
        8
 66
     7
 43
1.0
 76
     1
 77
     6
 78
     2
 67
     7
 79
     5
170
     0
171
     0
290
     0
174
     0
 93
        1
 44
0.0
173
     0
291
     1
 45
0.0
  0
VISUALSTYLE
  5
AE
102
{ACAD_REACTORS
330
26
102
}
330
26
100
AcDbVisualStyle
  2
Flat
 70
     0
 71
     2
 72
     1
 73
     1
 90
        2
 40
-0.6
 41
30.0
 62
     5
 63
     7
 74
     0
 91
        4
 64
     7
 65
   257
 75
     1
175
     1
 42
1.0
 92
        8
 66
     7
 43
1.0
 76
     1
 77
     6
 78
     2
 67
     7
 79
     5
170
     0
171
     0
290
     0
174
     0
 93
       13
 44
0.0
173
     0
291
     1
 45
0.0
  0
VISUALSTYLE
  5
AF
102
{ACAD_REACTORS
330
26
102
}
330
26
100
AcDbVisualStyle
  2
FlatWithEdges
 70
     1
 71
     2
 72
     1
 73
     1
 90
        2
 40
-0.6
 41
30.0
 62
     5
 63
     7
 74
     1
 91
        4
 64
     7
 65
   257
 75
     1
175
     1
 42
1.0
 92
        0
 66
   257
 43
1.0
 76
     1
 77
     6
 78
     2
 67
     7
 79
     5
170
     0
171
     0
290
     0
174
     0
 93
       13
 44
0.0
173
     0
291
     1
 45
0.0
  0
VISUALSTYLE
  5
B0
102
{ACAD_REACTORS
330
26
102
}
330
26
100
AcDbVisualStyle
  2
Gouraud
 70
     2
 71
     2
 72
     2
 73
     1
 90
        2
 40
-0.6
 41
30.0
 62
     5
 63
     7
 74
     0
 91
        4
 64
     7
 65
   257
 75
     1
175
     1
 42
1.0
 92
        0
 66
     7
 43
1.0
 76
     1
 77
     6
 78
     2
 67
     7
 79
     5
170
     0
171
     0
290
     0
174
     0
 93
       13
 44
0.0
173
     0
291
     1
 45
0.0
  0
VISUALSTYLE
  5
B1
102
{ACAD_REACTORS
330
26
102
}
330
26
100
AcDbVisualStyle
  2
GouraudWithEdges
 70
     3
 71
     2
 72
     2
 73
     1
 90
        2
 40
-0.6
 41
30.0
 62
     5
 63
     7
 74
     1
 91
        4
 64
     7
 65
   257
 75
     1
175
     1
 42
1.0
 92
        0
 66
   257
 43
1.0
 76
     1
 77
     6
 78
     2
 67
     7
 79
     5
170
     0
171
     0
290
     0
174
     0
 93
       13
 44
0.0
173
     0
291
     1
 45
0.0
  0
VISUALSTYLE
  5
B8
102
{ACAD_REACTORS
330
26
102
}
330
26
100
AcDbVisualStyle
  2
Linepattern
 70
    14
 71
     2
 72
     2
 73
     0
 90
        0
 40
-0.6
 41
-30.0
 62
     5
 63
     7
 74
     1
 91
        4
 64
     7
 65
   257
 75
     7
175
     7
 42
1.0
 92
        8
 66
     7
 43
1.0
 76
     1
 77
     6
 78
     2
 67
     7
 79
     5
170
     0
171
     0
290
     0
174
     0
 93
        1
 44
0.0
173
     0
291
     1
 45
0.0
  0
VISUALSTYLE
  5
35
102
{ACAD_REACTORS
330
26
102
}
330
26
100
AcDbVisualStyle
  2
Realistic
 70
     8
 71
     2
 72
     2
 73
     0
 90
        0
 40
-0.6
 41
-30.0
 62
     5
 63
     7
 74
     1
 91
        0
 64
     7
 65
   257
 75
     1
175
     1
 42
1.0
 92
        8
 66
     8
 43
1.0
 76
     1
 77
     6
 78
     2
 67
     7
 79
     5
170
     0
171
     0
290
     0
174
     0
 93
       13
 44
0.0
173
     0
291
     0
 45
0.0
  0
VISUALSTYLE
  5
B7
102
{ACAD_REACTORS
330
26
102
}
330
26
100
AcDbVisualStyle
  2
Thicken
 70
    13
 71
     2
 72
     2
 73
     0
 90
        0
 40
-0.6
 41
-30.0
 62
     5
 63
     7
 74
     1
 91
        4
 64
     7
 65
   257
 75
     1
175
     1
 42
1.0
 92
       12
 66
     7
 43
1.0
 76
     1
 77
     6
 78
     2
 67
     7
 79
     5
170
     0
171
     0
290
     0
174
     0
 93
        1
 44
0.0
173
     0
291
     1
 45
0.0
  0
DICTIONARYVAR
  5
A8
102
{ACAD_REACTORS
330
A7
102
}
330
A7
100
DictionaryVariables
280
     0
  1
STANDARD
  0
DICTIONARYVAR
  5
AC
102
{ACAD_REACTORS
330
A7
102
}
330
A7
100
DictionaryVariables
280
     0
  1
1
  0
DICTIONARYVAR
  5
AB
102
{ACAD_REACTORS
330
A7
102
}
330
A7
100
DictionaryVariables
280
     0
  1
1
  0
DICTIONARYVAR
  5
AA
102
{ACAD_REACTORS
330
A7
102
}
330
A7
100
DictionaryVariables
280
     0
  1
0
  0
DICTIONARYVAR
  5
A9
102
{ACAD_REACTORS
330
A7
102
}
330
A7
100
DictionaryVariables
280
     0
  1
127
  0
DICTIONARY
  5
C6
330
30
100
AcDbDictionary
280
     1
281
     1
  3
ACAD_XREC_ROUNDTRIP
360
C7
  0
DICTIONARY
  5
C4
330
2F
100
AcDbDictionary
280
     1
281
     1
  3
ACAD_XREC_ROUNDTRIP
360
C5
  0
DICTIONARY
  5
BE
330
A
100
AcDbDictionary
280
     1
281
     1
  3
ACAD_XREC_ROUNDTRIP
360
BF
  0
XRECORD
  5
C7
102
{ACAD_REACTORS
330
C6
102
}
330
C6
100
AcDbXrecord
280
     1
102
MATERIAL
148
0.0
149
0.0
149
0.0
 93
        0
 94
       63
282
     0
 72
     1
 77
     1
171
     1
175
     1
179
     1
273
     0
  0
XRECORD
  5
C5
102
{ACAD_REACTORS
330
C4
102
}
330
C4
100
AcDbXrecord
280
     1
102
MATERIAL
148
0.0
149
0.0
149
0.0
 93
        0
 94
       63
282
     0
 72
     1
 77
     1
171
     1
175
     1
179
     1
273
     0
  0
XRECORD
  5
BF
102
{ACAD_REACTORS
330
BE
102
}
330
BE
100
AcDbXrecord
280
     1
102
MATERIAL
148
0.0
149
0.0
149
0.0
 93
        0
 94
       63
282
     0
 72
     1
 77
     1
171
     1
175
     1
179
     1
273
     0
  0
ENDSEC
  0
EOF
